Song name
# A B C D E F G H I J K L M N O P Q R S T U V W X Y Z

The Summer Obsession - Melt The Sugar tab

----------------------------------------------------------------------------
			     Melt The Sugar - The Summer Obsession
----------------------------------------------------------------------------
This is a very easy song, good for beginners

Tabbed by: Aaron ;) (chungalunga)


Tuning: Standard

Intro:

No Guitar, only some bass and synth

Verse 1:

No Guitar

Pre-Chorus:

All Palm Muted       Don't play second time                       
                           |
e|-------------------|----------|--------------------------|
B|-------------------|----------|--------------------------|
G|-------------------|--5-5-5-5-|--------------------------| (x2)
D|--7-7-7-7--3-3-3-3-|--5-5-5-5-|--5-5-5-5-----------------|
A|--7-7-7-7--3-3-3-3-|--3-3-3-3-|--5-5-5-5-----------------|
E|--5-5-5-5--1-1-1-1-|----------|--3-3-3-3-----------------|

Chorus:

e|--------------------------------------------------------|
B|--------------------------------------------------------|
G|--5555555555555555--------------------------------------| (x2)
D|--5555555555555555--33333333--55555555------------------|
A|--3333333333333333--33333333--55555555------------------|
E|--------------------11111111--33333333------------------|

Verse 2:

Palm Muted and repeated all the way through Verse 2

e|---------------------------------------------------------|
B|---------------------------------------------------------|
G|---5--5--5--5--5--5--5--5--------------------------------|
D|---5--5--5--5--5--5--5--5--------------------------------|
A|---3--3--3--3--3--3--3--3--------------------------------|
E|---------------------------------------------------------|

Pre-Chorus:

All Palm Muted       Don't play second time                       
                           |
e|-------------------|----------|--------------------------|
B|-------------------|----------|--------------------------|
G|-------------------|--5-5-5-5-|--------------------------| (x2)
D|--7-7-7-7--3-3-3-3-|--5-5-5-5-|--5-5-5-5-----------------|
A|--7-7-7-7--3-3-3-3-|--3-3-3-3-|--5-5-5-5-----------------|
E|--5-5-5-5--1-1-1-1-|----------|--3-3-3-3-----------------|

Chorus:

e|--------------------------------------------------------|
B|--------------------------------------------------------|
G|--5555555555555555--------------------------------------| (x2)
D|--5555555555555555--33333333--55555555------------------|
A|--3333333333333333--33333333--55555555------------------|
E|--------------------11111111--33333333------------------|

Pre-Chorus:

All Palm Muted       Don't play second time                       
                           |
e|-------------------|----------|--------------------------|
B|-------------------|----------|--------------------------|
G|-------------------|--5-5-5-5-|--------------------------| (x2)
D|--7-7-7-7--3-3-3-3-|--5-5-5-5-|--5-5-5-5-----------------|
A|--7-7-7-7--3-3-3-3-|--3-3-3-3-|--5-5-5-5-----------------|
E|--5-5-5-5--1-1-1-1-|----------|--3-3-3-3-----------------|


[Break with no guitar]


Chorus:

e|--------------------------------------------------------|
B|--------------------------------------------------------|
G|--5555555555555555--------------------------------------| (x3)
D|--5555555555555555--33333333--55555555------------------|
A|--3333333333333333--33333333--55555555------------------|
E|--------------------11111111--33333333------------------|


Ending:

Bass, Drums and Piano, no Guitar

Thats about it folks!


| /  slide up
| \  slide down
| h  hammer-on
| p  pull-off
| ~  vibrato
| +  harmonic
| x  Mute note
============================================================================
Tap to rate this tab
 
# A B C D E F G H I J K L M N O P Q R S T U V W X Y Z