Guitaretab - guitar tabs
Song name
# A B C D E F G H I J K L M N O P Q R S T U V W X Y Z

The Summer Obsession - Death Said tab

intro:
e|---------------------------------------------------------------------|
B|--6-6-6-6-6-6-6-6--4-4-4-4-4-4-4-4--7-7-7-7-7-7-7-7--4-4-4-4-4-4-4-4-|
G|--6-6-6-6-6-6-6-6--6-6-6-6-6-6-6-6--6-6-6-6-6-6-6-6--5-5-5-5-5-5-5-5-|
D|---------------------------------------------------------------------|
A|---------------------------------------------------------------------|
E|---------------------------------------------------------------------|

[ Tab from: http://www.guitaretab.com/t/the-summer-obsession/81671.html ]
the rest of the song...(verse and chorus)
e|---------------------------------------------------------------------|
B|---------------------------------------------------------------------|
G|---------------------------------------------------------------------|
D|-------------------8-8-8-8-8-8-8-8-----------------------------------|
A|--8-8-8-8-8-8-8-8--6-6-6-6-6-6-6-6--4-4-4-4-4-4-4-4--6-6-6-6-6-6-6-6-|
E|--6-6-6-6-6-6-6-6-------------------2-2-2-2-2-2-2-2--4-4-4-4-4-4-4-4-|
Related for Death Said tab