Song name
# A B C D E F G H I J K L M N O P Q R S T U V W X Y Z

The Summer Set - Young tab

Young
The Summer Set

Tab by thewaywetalk

I noticed the other tabs were slightly off.
I'm pretty sure this is correct.

 Intro/Verse
 P.M~~~~~~~~~~~~~~~~~~~~~~~~~~~~~~~~~~~~~~~~~~
|---------------------------------------------|
|---------------------------------------------|
|---------------------------------------------|
|--44444444-------------77777777--------------|
|--22222222--555555555--55555555--77777777----|
|------------333333333------------55555555----|

 (during the second round through on each verse the second guitar played the
  first two chords of each progression open.Its sounds kinda synthesized in the 
but if you listen you'll know what i mean)

 Pre-Chorus
|------------------|
|------------------|
|------------------|
|------------------|
|--5-------7-------|
|--3-------5-------|

 Chorus
|------------------------------------------|
|------------------------------------------|
|------------------------------------------|
|---77777777-------------------------------|
|---55555555--77777777--5555555555555555---|
|-------------55555555--3333333333333333---| x2

 Chorus Cont.
|------------------------------------------|
|------------------------------------------|
|------------------------------------------|
|------------------------------------------|
|---99999999--77777777--5555555555555555---|
|---77777777--55555555--3333333333333333---| x1

 (play chorus Pt.1 one more time)


Bridge
|-------------------------------|
|-------------------------------|
|-------------------------------|
|----7--------------------------|
|----5----7----5----7----9------|
|---------5----3----5----7------|
Tap to rate this tab
 
# A B C D E F G H I J K L M N O P Q R S T U V W X Y Z