Song name
# A B C D E F G H I J K L M N O P Q R S T U V W X Y Z

The Summer Set - Where Are You Now tab

------------------------------------------------------------------------------
                    WHERE ARE YOU NOW? - The Summer Set
------------------------------------------------------------------------------

CAPO 2, same as for the rest of the song.


e|--2h3---3--2h3---3--2h3---3--5--5--5---2h3---3--2h3---3--7--7--7--5--5--5--|
B|------3--------3--------3------------------3--------3----------------------|
G|---------------------------------------------------------------------------|
D|---------------------------------------------------------------------------|
A|---------------------------------------------------------------------------|
E|---------------------------------------------------------------------------|

e|-----------3--3--3------------3--3--3----7--3--7--8--3--8--8----7--3--7----|
B|--0--0-1-3-----------0--0-1-3----------------------------------------------|
G|---------------------------------------------------------------------------|
D|---------------------------------------------------------------------------|
A|---------------------------------------------------------------------------|
E|---------------------------------------------------------------------------|

e|--8--3--8--7---------------------------------------------------------------|
B|---------------------------------------------------------------------------|
G|---------------------------------------------------------------------------|
D|---------------------------------------------------------------------------|
A|---------------------------------------------------------------------------|
E|---------------------------------------------------------------------------|
Tap to rate this tab
 
# A B C D E F G H I J K L M N O P Q R S T U V W X Y Z