Song name
# A B C D E F G H I J K L M N O P Q R S T U V W X Y Z

The Sunshine Underground - Borders tab

Song: Borders
Artist: The Sunshine Underground
Tuning: Standard EADGBe

This is an awesome Sunshine Underground song.  I got the main rhythm riff from the other
on this site but I have also tabbed the lead guitar parts.  The timing is not exact but
the notes are right so just play along to the track and you should get it.  Song 
at the bottom.


Rhy Riff 1
e|------------------------------------------------|------------------------------------------------|
B|------------------------------------------------|------------------------------------------------|
G|--6--6--6--6--6--6--6--6--6--6--6--6--6--7--7--7|--7--7--7--7--7--6--6--6--6--6--6--6--6--4--4--4|
D|--7--7--7--7--7--7--7--7--4--4--4--4--4--4--4--4|--0--0--0--0--0--0--0--0--7--7--7--7--7--7--7--7|
A|--0--0--0--0--0--0--0--0------------------------|--------------------------0--0--0--0--0--0--0--0|
E|------------------------------------------------|------------------------------------------------|

e|------------------------------------------------|------------------------------------------------|
B|------------------------------------------------|------------------------------------------------|
G|--4--4--4--4--4--6--6--6--6--6--6--6--6--7--7--7|--7--7--7--7--7--6--6--6--6--6--6--6--6--6--6--6|
D|--7--7--7--7--7--7--7--7--4--4--4--4--4--4--4--4|--0--0--0--0--0--0--0--0--7--7--7--7--7--7--7--7|
A|--0--0--0--0--0--0--0--0------------------------|--------------------------0--0--0--0--0--0--0--0|
E|------------------------------------------------|------------------------------------------------|


Lead Riff 1
e|------------------------------------------------|------------------------------------------------|
B|------------------------------------------------|------------------------------------------------|
G|------------------------------------------------|-------------------------14-14----14-14----14---|
D|-14-14-14-14-14-11-11-11-11-12-12-12-12-12-12-12|-12-12-12-11-12-11--~---------------------------|
A|------------------------------------------------|----------------------12--~----12--~----12--~---|
E|------------------------------------------------|------------------------------------------------|

e|------------------------------------------------|------------------------------------------------|
B|------------------------------------------------|------------------------------------------------|
G|------------------------------------------------|-14----13----13----13----13h14-14-13h14-14-14---|
D|--9--9--9--9--9h11-p9---------------------------|----12----12----12----12------------------------|
A|----------------------11---/12---/14\12\11h12---|------------------------------------------------|
E|------------------------------------------------|------------------------------------------------|


Rhy Riff 2
e|------------------------------------------------|------------------------------------------------|
B|------------------------------------------------|------------------------------------------------|
G|--------------------------6--6--6--6--6--7--7--7|--7--7--7--7--7--6--6--6--6--6--6--6--6--6--6--6|
D|--------------------------4--4--4--4--4--4--4--4|--0--0--0--0--0--0--0--0--7--7--7--7--7--7--7--7|
A|------------------------------------------------|--------------------------0--0--0--0--0--0--0--0|
E|------------------------------------------------|------------------------------------------------|


Lead Riff 2
e|------------------------------------------------|------------------------------------------------|
B|----------------------------------------------15|-15-15-15-15-15-15-15---------------------------|
G|-14-14-14-13-13-13-13-14-14-14-14-13-13-13-13---|----------------------14-14-14-14-14-14-14-14-14|
D|------------------------------------------------|------------------------------------------------|
A|------------------------------------------------|------------------------------------------------|
E|------------------------------------------------|------------------------------------------------|


Bass part played when no guitars are played
G|------------------------------------------------|------------------------------------------------|
D|------------------------------------------------|------------------------------------------------|
A|--0--0--0--0--0--0--0--2------------------------|--5--5--5--5--5--5--5--4--0--0--0--0--0--0--0--0|
E|--------------------------2--2--2--2--2--2--2--2|------------------------------------------------|


Lead Riff 3
e|------------------------------------------------|------------------------------------------------|
B|-15-15-14-14-15-15-14-14-15-15-14-14-15-15-14-15|--~-15-14-14-15-15-14-14-15-15-14-14-15-15-14-15|
G|------------------------------------------------|------------------------------------------------|
D|------------------------------------------------|------------------------------------------------|
A|------------------------------------------------|------------------------------------------------|
E|------------------------------------------------|------------------------------------------------|


Lead Riff 4
e|------------------------------------------------|-------------17-------17-------17-------17------|
B|--~-15-14-14-15-15-14-14-15-15-14-14-15-15-14-15|--~-15-14-15----14-15----14-15----14-15----14-15|
G|------------------------------------------------|------------------------------------------------|
D|------------------------------------------------|------------------------------------------------|
A|------------------------------------------------|------------------------------------------------|
E|------------------------------------------------|------------------------------------------------|


Rhy Riff 3
e|------------------------------------------------|------------------------------------------------|
B|------------------------------------------------|------------------------------------------------|
G|------------------------------------------------|--7--7--7--7--7--7--7--7--4--4--4--4--4--4--4--4|
D|------------------------------------------------|--0--0--0--0--0--0--0--0--0--0--0--0--0--0--0--0|
A|------------------------------------------------|------------------------------------------------|
E|------------------------------------------------|------------------------------------------------|

e|------------------------------------------------|------------------------------------------------|
B|------------------------------------------------|------------------------------------------------|
G|--4--6--6--4--6--6--4--6--6--6--6--7--7--6--6--6|--7--7--7--7--7--7--7--7--6--6--6--6--6--6--6--6|
D|--7--7--7--7--7--7--7--7--4--4--4--4--4--4--4--4|--0--0--0--0--0--0--0--0--7--7--7--7--7--7--7--7|
A|--0--0--0--0--0--0--0--0------------------------|--------------------------0--0--0--0--0--0--0--0|
E|------------------------------------------------|------------------------------------------------|

e|------------------------------------------------|------------------------------------------------|
B|------------------------------------------------|------------------------------------------------|
G|------------------------------------------------|------------------------------------------------|
D|------------------------------------------------|------------------------------------------------|
A|-----0-----0-----0-----0-----0-----0-----0-----0|-----0-----0-----0-----0-----0-----0--0---------|
E|------------------------------------------------|------------------------------------------------|


Song Structure:

Rhy Riff 1
Rhy Riff 1
Rhy Riff 1
Rhy Riff 1    Lead Riff 1
Rhy Riff 1
Rhy Riff 1
Rhy Riff 1    Lead Riff 1
Rhy Riff 2    Lead Riff 2
Rhy Riff 2    Lead Riff 2
Break
Rhy Riff 1    Lead Riff 1
Rhy Riff 2    Lead Riff 2
Rhy Riff 2    Lead Riff 2
Break
Rhy Riff 1
Lead Riff 2
Lead Riff 2   Lead Riff 3
Lead Riff 2   Lead Riff 3
Rhy Riff 1    Lead Riff 1
Rhy Riff 3    Lead Riff 3, then Lead Riff 4
Tap to rate this tab
 
# A B C D E F G H I J K L M N O P Q R S T U V W X Y Z