Song name
# A B C D E F G H I J K L M N O P Q R S T U V W X Y Z

The Sunshine Underground - Coming To Save You tab

The Sunshine Underground - Coming To Save You
taken from the album 'Nobody's Coming To Save You'

[Intro Riff 1]             +     +

e|-----------------------14-------|
B|-----------------------------14-|
G|-------13-------14--------------|
D|--------------------------------|
A|-11-11----11-11-----------------|
E|--------------------------------|

[Pre Chorus Riff]

e|--------------------------------|
B|----------16-1717-16------------|
G|-------16------------16-14------|
D|-16-14--------------------------|
A|--------------------------------|
E|--------------------------------|

[Main Riff]

e|-----------------|
B|-----------------|
G|-----------------|
D|-46-46~---46-46~-|
A|-46-46~---46-46~-|
E|-44-44~---44-44~-|

[Chorus]

e|-----------------------------------------------------|
B|-----------------------------------------------------|
G|-----------------------------------------------------|
D|-9999999999999-1111-13131313131313131313131313131313-|
A|-9999999999999-1111-13131313131313131313131313131313-|
E|-7777777777777-9-9--11111111111111111111111111111111-|

e|--------------------------------------|
B|--------------------------------------|
G|--------------------------------------|
D|-6666666666666-44-66666666666666-44-9-|
A|-6666666666666-44-66666666666666-44-9-|
E|-4444444444444-44-44444444444444-44-7-|
Tap to rate this tab
 
# A B C D E F G H I J K L M N O P Q R S T U V W X Y Z