Song name
# A B C D E F G H I J K L M N O P Q R S T U V W X Y Z

The Sunshine Underground - Commercial Breakdown tab

The Sunshine Underground
Commercial breakdown


Standard tuning: EADGBe

Well... as you notice guitar 1 plays this key the whole song:

A5, C#5, D5, A5

with slightly distortion and a bit of overdrive, just listen carefully

Intro:

Guitar 1 
e|---------------------------------------------------|
B|---------------------------------------------------|
G|--------------------------6-6--6-6--6-6--6-6--6-6--|
D|-7-7--7-7--7-7--7-7--7-7--6-6--6-6--6-6--6-6--6-6--|
A|-7-7--7-7--7-7--7-7--7-7--4-4--4-4--4-4--4-4--4-4--|
E|-5-5--5-5--5-5--5-5--5-5---------------------------|

e|---------------------------------------------------|
B|---------------------------------------------------|
G|-7-7--7-7--7-7--7-7--7-7---------------------------|
D|-7-7--7-7--7-7--7-7--7-7--7-7--7-7--7-7--7-7--7-7--|
A|-5-5--5-5--5-5--5-5--5-5--7-7--7-7--7-7--7-7--7-7--|
E|--------------------------5-5--5-5--5-5--5-5--5-5--|

Drums enter and guitar 2 plays octaves:

Guitar 2
e|---------------------------------------------------|
B|---------------------------------------------------|
G|--------------------------6666666666666666---------|
D|-7777777777777777----------------------------------|
A|--------------------------4444444444444444---------|
E|-5555555555555555----------------------------------|

e|---------------------------------------------------|
B|---------------------------------------------------|
G|-7777777777777777----------------------------------|
D|--------------------------7777777777777777---------|
A|-5555555555555555----------------------------------|
E|--------------------------5555555555555555---------|

Enter the bass and guitar 1:

Guitar 1 
e|---------------------------------------------------|
B|---------------------------------------------------|
G|--------------------------6-6--6-6--6-6--6-6--6-6--|
D|-7-7--7-7--7-7--7-7--7-7--6-6--6-6--6-6--6-6--6-6--|
A|-7-7--7-7--7-7--7-7--7-7--4-4--4-4--4-4--4-4--4-4--|
E|-5-5--5-5--5-5--5-5--5-5---------------------------|

e|---------------------------------------------------|
B|---------------------------------------------------|
G|-7-7--7-7--7-7--7-7--7-7---------------------------|
D|-7-7--7-7--7-7--7-7--7-7--7-7--7-7--7-7--7-7--7-7--|
A|-5-5--5-5--5-5--5-5--5-5--7-7--7-7--7-7--7-7--7-7--|
E|--------------------------5-5--5-5--5-5--5-5--5-5--|

Mute and start sing with only bass

...so told my problems
e|-----------------------------------------------------------|
B|-----2---2----------2---2-------------5-------------5------|
G|-2-2-2-2---2-2--2-2-2-2---2-2-----6---6--6------6---6--6---|
D|-2-2---2-----2--2-2---2-----2---6---4------4--6---4------4-|
A|--------------------------------4-------------4------------|
E|-----------------------------------------------------------|

e|-----------------------------------------------------------|
B|--7-7-7-7--777--7-7-7-7--777-------------------------------|
G|--7-7-7-7--777--7-7-7-7--777----6-6--6-6-6--6-6--6-6-6-----|
D|--7-7-7-7--777--7-7-7-7--777----7--7-7-7-7--7--7-7-7-7-----|
A|--5-5-5-5--555--5-5-5-5--555----7----7-7-7--7----7-7-7-----|
E|--------------------------------5----5-5-5--5----5-5-5-----|

e|-----------------------------------------------------------|
B|-----------------------------------------------------------|
G|------------------------------6-6-X-6-6-X-6-6-X-6-6-X-6-6--|
D|-7-7-X-7-7-X-7-7-X-7-7-X-7-7--6-6-X-6-6-X-6-6-X-6-6-X-6-6--|
A|-7-7-X-7-7-X-7-7-X-7-7-X-7-7--4-4-X-4-4-X-4-4-X-4-4-X-4-4--|
E|-5-5-X-5-5-X-5-5-X-5-5-X-5-5-------------------------------|

e|-----------------------------------------------------------|
B|-----------------------------------------------------------|
G|-7-7-X-7-7-X-7-7-X-7-7-X-7-7-------------------------------|
D|-7-7-X-7-7-X-7-7-X-7-7-X-7-7--7-7-X-7-7-X-7-7-X-7-7-X-7-7--|
A|-5-5-X-5-5-X-5-5-X-5-5-X-5-5--7-7-X-7-7-X-7-7-X-7-7-X-7-7--|
E|------------------------------5-5-X-5-5-X-5-5-X-5-5-X-5-5--|


solo
e|------------------------------------------------------------|
B|------------------------------------------------------------|
G|------------------------------------------------------------|
D|-7-7-7-7-7-7-9-6--6-6-6-6-6-6--7-7-7-7-7-7-9-6--6-6-6-6-6-6-|
A|------------------------------------------------------------|
E|------------------------------------------------------------|

e|------------------------------------------------------------|
B|------------------------------------------------------------|
G|----------------------------6-6--6-6-6-6-7--7-7-7-7-7-7-----|
D|-7-7-7-7-7-9--9-9-9-9-9-9-9---------------------------------|
A|------------------------------------------------------------|
E|------------------------------------------------------------|

e|------------------------------------------------------------|
B|------------------------------------------------------------|
G|-7-7-7-7-7-7-9-6--6-6-6-6-6-6--7-7-7-7-7-7-9-6--6-6-6-6-6-6-|
D|------------------------------------------------------------|
A|------------------------------------------------------------|
E|------------------------------------------------------------|

e|------------------------------------------------------------|
B|------------------------------------------------------------|
G|-6-6-6------------------------------------------------------|
D|-------9-9-9-7-7-7-9-9-9b10r9-9-----------------------------|
A|------------------------------------------------------------|
E|------------------------------------------------------------|





Ok. It's all that you need to know, just listen the song to get the right times and rithm
it's pretty easy to play once you notice that.

This is my little colaboration, please rate it and enjoy.


e-mail me if you have any question or correction:
jeis_br@hotmail.com.
Tap to rate this tab
# A B C D E F G H I J K L M N O P Q R S T U V W X Y Z