Song name
# A B C D E F G H I J K L M N O P Q R S T U V W X Y Z

The Supervillains - 20 Excuses tab

Highlighted       Show chord diagrams
-------------------------------------------------------------------------------
			     20 Excuses - The Supervillains
-------------------------------------------------------------------------------
Tabbed by: GARZA
Email: myspace.com/the_apollo


Listen, this is my first tab ever so there are bound to be some mistakes.
This is a song from the Orlando band "The Supervillains". Check em' out at
myspace.com/therealsupervillains.


It's played in standard Reggae strumming

Tuning:Standard

Intro/Verse/Chorus

   F#m             D           A           C#
e|-9---9---9---9---5--5--5--5--5--5--5--5--4--4--4--4---|
B|-10--10--10--10--7--7--7--5--5--5--5--5--6--6--6--6---|
G|-11--11--11--11--7--7--7--7--6--6--6--6--6--6--6--6---|
D|-11--11--11--11--7--7--7--7--7--7--7--7--6--6--6--6---|
A|-9---9---9---9---5--5--5--5--7--7--7--7--4--4--4--4---|
E|-----------------------------5--5--5--5---------------|

"When you were here..."

   A           C#          F#m             D
e|-5--5--5--5--4--4--4--4--9---9---9---9---5--5--5--5---|
B|-5--5--5--5--6--6--6--6--10--10--10--10--7--7--7--7---|
G|-6--6--6--6--6--6--6--6--11--11--11--11--7--7--7--7---|
D|-7--7--7--7--6--6--6--6--11--11--11--11--7--7--7--7---|
A|-7--7--7--7--4--4--4--4--9---9---9---9---5--5--5--5---|
E|-5--5--5--5-------------------------------------------| x4


   D           A           C#          G          F#  A         D
e|-5--5--5--5--5--5--5--5--4--4--4--4--3--3--3----2/5--5--5--5--5--5--5--|
B|-7--7--7--5--5--5--5--5--6--6--6--6--3--3--3----2/5--5--5--5--7--7--7--|
G|-7--7--7--7--6--6--6--6--6--6--6--6--4--4--4----3/6--6--6--6--7--7--7--|
D|-7--7--7--7--7--7--7--7--6--6--6--6--5--5--5----4/7--7--7--7--7--7--7--|
A|-5--5--5--5--7--7--7--7--4--4--4--4--5--5--5----4/7--7--7--7--5--5--5--|
E|-------------5--5--5--5--------------3--3--3----2/5--5--5--5-----------|


-Chorus-


"When you were here..."

   A           C#          F#m             D
e|-5--5--5--5--4--4--4--4--9---9---9---9---5--5--5--5---|
B|-5--5--5--5--6--6--6--6--10--10--10--10--7--7--7--7---|
G|-6--6--6--6--6--6--6--6--11--11--11--11--7--7--7--7---|
D|-7--7--7--7--6--6--6--6--11--11--11--11--7--7--7--7---|
A|-7--7--7--7--4--4--4--4--9---9---9---9---5--5--5--5---|
E|-5--5--5--5-------------------------------------------| x4


                           "Look so fine"

   A           D           A           C#
e|-5--5--5--5--5--5--5--5--5--5--5--5--4--4--4--4-|
B|-5--5--5--5--7--7--7--7--5--5--5--5--6--6--6--6-|
G|-6--6--6--6--7--7--7--7--6--6--6--6--6--6--6--6-|
D|-7--7--7--7--7--7--7--7--7--7--7--7--6--6--6--6-|
A|-7--7--7--7--5--5--5--5--7--7--7--7--4--4--4--4-|
E|-5--5--5--5--------------5--5--5--5-------------|

Outro

   F#m             D           A           C#
e|-9---9---9---9---5--5--5--5--5--5--5--5--4--4--4--4---|
B|-10--10--10--10--7--7--7--5--5--5--5--5--6--6--6--6---|
G|-11--11--11--11--7--7--7--7--6--6--6--6--6--6--6--6---|
D|-11--11--11--11--7--7--7--7--7--7--7--7--6--6--6--6---|
A|-9---9---9---9---5--5--5--5--7--7--7--7--4--4--4--4---|
E|-----------------------------5--5--5--5---------------|


   F#m             D
e|-9---9---9---9---5--5--|
B|-10--10--10--10--7--7--|
G|-11--11--11--11--7--7--|
D|-11--11--11--11--7--7--|
A|-9---9---9---9---5--5--|
E|-----------------------|


This is the first Supervillains tab on the site. Hopefully more will come.

| /  slide up
| \  slide down
| h  hammer-on
| p  pull-off
| ~  vibrato
| +  harmonic
| x  Mute note
===============================================================================
Tap to rate this tab
 
# A B C D E F G H I J K L M N O P Q R S T U V W X Y Z