Song name
# A B C D E F G H I J K L M N O P Q R S T U V W X Y Z

The Supervillains - Iru Kanji tab

-------------------------------------------------------------------------------
			    Iru Kanji - The Supervillains
-------------------------------------------------------------------------------
Tabbed by: ilost8dollars
Email: ilost8dollars@aim.com

Tuning: Standard

will be finished soon

e|---------------------|------------5---------5---------5---------5-8-5---5-|
B|-5---------5---------|--5-------------------5---------5---------5-8-5---5-|
G|---7--5------7--5----|----7b(1/2)---7b(1/2)---7b(1/2)---7b(1/2)-------7---|
D|--------7---------7--|----------------------------------------------------|
A|---------------------|----------------------------------------------------|
E|---------------------|----------------------------------------------------|

just bend the G string not the D string
e|---------------------------|
B|---------------------------|
G|-5b~(1/4)-----------5-7-5--|
D|-7~-------5h7--5-7---------|
A|---------------------------|
E|---------------------------|

  Am         Dm        Am      Dm        E
e|-5----5----5----5----5-------5----5----------------------|
B|-5----5----6----6----5-------6----6----8----8----8----8--|
G|-5----5----7----7----5-(x6)--7----7----8----8----8----8--|
D|-7----7----7----7----7-------7----7----8----8----8----8--|x4
A|-7----7----5----5----7-------5----5----7----7----7----7--|
E|-5----5--------------5-----------------------------------|


************************************

| /   slide up
| \   slide down
| h   hammer-on
| p   pull-off
| ~   vibrato
| +   harmonic
| x   Mute note
| b   Bend
| pb  Pre-bend
| br  Bend release
| pbr Pre-bend release
| brb Bend release bend

************************************
Tap to rate this tab
# A B C D E F G H I J K L M N O P Q R S T U V W X Y Z