Song name
# A B C D E F G H I J K L M N O P Q R S T U V W X Y Z

The Supervillains - Movin Out Anthonys Song Acoustic tab

E---5-------3---3---3~-xx---1~-xx-----------------------|
B---6-------3---3---5~-xx---1~-xx-----------------------|
G---7-------3---3---5~-xx---2~-xx-----------------------|
D---7---------------------------------------------------|
A-5-----------5---3-------------------------------------|
E-----5-4-3---------------1-----------------------------|

E---5-------3-------3~-xx---1---------------------------------|
B---6-------3-------5~-xx---1---------------------------------|
G---7-------3-------5~-xx---2---------------------------------|
D-------------------------------------------------------------|
A-5-----------5-4-3--------------0h3--------------------------|
E-----5-4-3---------------1---0h1-----------------------------|

"Anthony works in the grocery store
Savin' his pennies for some day"
E-x-5-x-5-x-3-x-3-x-3~-xx-1~-xx-----------------|
B-x-6-x-6-x-3-x-3-x-5~-xx-1~-xx-----------------|
G-x-7-x-7-x-3-x-3-x-5~----2~-xx-----------------|
D-----------------------------------------------|
A-----------------------------------------------|
E-----------------------------------------------|

"Mama Leone left a note on the door
She said "Sonny move out to the country"
E-x-5-x-5-x-3-x-3-x-3~-xx-1~-xx-----------------|
B-x-6-x-6-x-3-x-3-x-5~-xx-1~-xx-----------------|
G-x-7-x-7-x-3-x-3-x-5~----2~-xx-----------------|
D-----------------------------------------------|
A-----------------------------------------------|
E-----------------------------------------------|


"Ah but working too hard can give you
A heart attack, ack, ack, ack, ack, ack
You ought-a know by now"
E-x-5-x-5-x--------------------1~-xx---3~-xx----------|
B-x-6-x-6-x-------------5------3~-xx---5~-xx----------|
G-x-7-x-7-x-----3---------5----3~-xx---5~-xx----------|
D-----------------5---5-------------------------------|
A-------------5-----3--------1-------3----------------|
E-----------3-----------------------------------------|

"Who needs a house out in Hackensack?
Is that all you get for your money?"
E-----------------------------------|
B-----------------------------------|
G-----------------------------------|
D-m---------------------------------|
A-5---------------5--3--------------|
E------5--4--3------------0----1----|

"And it seems such a waste of time
If that's what it's all about
E----------------------------------------|
B-------------5-------5-------6----------|
G-----7---------5-------3-------7--------|
D-------8---5-------5-------7------------|
A---8-----3-------3-------5--------------|
E-6--------------------------------------|
Mama if that's movin up then I'm...movin out"
E---------------------------------------|
B-----------------------5---------------|
G-----7-------6-------7---7-------------|
D-------8-------7---7-------7---7-------|
A---8-------7-----5-----------5---------|
E-6-------5-----------------------------|

"Mm I' movin' out"
E---5-------3---3---3~-xx---1~-xx-----------------------|
B---6-------3---3---5~-xx---1~-xx-----------------------|
G---7-------3---3---5~-xx---2~-xx-----------------------|
D---7---------------------------------------------------|
A-5-----------5---3-------------------------------------|
E-----5-4-3---------------1-----------------------------|

"Mm oo oo uh huh mm hm"
E---5-------3-------3~-xx---1---------------------------------|
B---6-------3-------5~-xx---1---------------------------------|
G---7-------3-------5~-xx---2---------------------------------|
D-------------------------------------------------------------|
A-5-----------5-4-3--------------0h3--------------------------|
E-----5-4-3---------------1---0h1-----------------------------|

"Sergeant O'Leary is walkin the beat
At night he becomes a bartender"
E-x-5-x-5-x-3-x-3-x-3~-xx-1~-xx-----------------|
B-x-6-x-6-x-3-x-3-x-5~-xx-1~-xx-----------------|
G-x-7-x-7-x-3-x-3-x-5~----2~-xx-----------------|
D-----------------------------------------------|
A-----------------------------------------------|
E-----------------------------------------------|


"He works at Mister Cacciatores down on Sullivan Street
Across from the medical center"
E-x-5-x-5-x-3-x-3-x-3~-xx-1~-xx-----------------|
B-x-6-x-6-x-3-x-3-x-5~-xx-1~-xx-----------------|
G-x-7-x-7-x-3-x-3-x-5~----2~-xx-----------------|
D-----------------------------------------------|
A-----------------------------------------------|
E-----------------------------------------------|

"And he's tradin in his Chevy for
A Cadillac ack ack ack ack ack
You ought-a know by now"
E-x-5-x-5-x--------------------1~-xx---3~-xx----------|
B-x-6-x-6-x-------------5------3~-xx---5~-xx----------|
G-x-7-x-7-x-----3---------5----3~-xx---5~-xx----------|
D-----------------5---5-------------------------------|
A-------------5-----3--------1-------3----------------|
E-----------3-----------------------------------------|

"If he can't drive with a broken back
At least he can polish the fenders"
E-x-5-x-5-x-3-x-3-x-3~-xx-1~-xx-----------------|
B-x-6-x-6-x-3-x-3-x-5~-xx-1~-xx-----------------|
G-x-7-x-7-x-3-x-3-x-5~----2~-xx-----------------|
D-----------------------------------------------|
A-----------------------------------------------|
E-----------------------------------------------|


"And it seems such a waste of time
If that's what it's all about
E----------------------------------------|
B-------------5-------5-------6----------|
G-----7---------5-------3-------7--------|
D-------8---5-------5-------7------------|
A---8-----3-------3-------5--------------|
E-6--------------------------------------|
Mama if that's movin up then I'm...movin out"
E---------------------------------------|
B-----------------------5---------------|
G-----7-------6-------7---7-------------|
D-------8-------7---7-------7---7-------|
A---8-------7-----5-----------5---------|
E-6-------5-----------------------------|

"Mm I' movin' out"
E---5-------3---3---3~-xx---1~-xx-----------------------|
B---6-------3---3---5~-xx---1~-xx-----------------------|
G---7-------3---3---5~-xx---2~-xx-----------------------|
D---7---------------------------------------------------|
A-5-----------5---3-------------------------------------|
E-----5-4-3---------------1-----------------------------|

"Mm oo oo uh huh mm hm"
E---5-------3-------3~-xx---1---------------------------------|
B---6-------3-------5~-xx---1---------------------------------|
G---7-------3-------5~-xx---2---------------------------------|
D-------------------------------------------------------------|
A-5-----------5-4-3--------------0h3--------------------------|
E-----5-4-3---------------1---0h1-----------------------------|
"You should never argue with a crazy mi mi mi mi mi mind
You ought-a know by now"
E-x-5-x-5-x--------------------1~-xx---3~-xx----------|
B-x-6-x-6-x-------------5------3~-xx---5~-xx----------|
G-x-7-x-7-x-----3---------5----3~-xx---5~-xx----------|
D-----------------5---5-------------------------------|
A-------------5-----3--------1-------3----------------|
E-----------3-----------------------------------------|

"You can pay Uncle Sam with the overtime
Is that all you get for your money"
E-x-5-x-5-x-3-x-3-x-3~-xx-1~-xx-----------------|
B-x-6-x-6-x-3-x-3-x-5~-xx-1~-xx-----------------|
G-x-7-x-7-x-3-x-3-x-5~----2~-xx-----------------|
D-----------------------------------------------|
A-----------------------------------------------|
E-----------------------------------------------|

"And it seems such a waste of time
If that's what it's all about
E----------------------------------------|
B-------------5-------5-------6----------|
G-----7---------5-------3-------7--------|
D-------8---5-------5-------7------------|
A---8-----3-------3-------5--------------|
E-6--------------------------------------|
Mama if that's movin up then I'm...movin out"
E---------------------------------------|
B-----------------------5---------------|
G-----7-------6-------7---7-------------|
D-------8-------7---7-------7---7-------|
A---8-------7-----5-----------5---------|
E-6-------5-----------------------------|

"Mm I' movin' out"
E---5-------3---3---3~-xx---1~-xx-----------------------|
B---6-------3---3---5~-xx---1~-xx-----------------------|
G---7-------3---3---5~-xx---2~-xx-----------------------|
D---7---------------------------------------------------|
A-5-----------5---3-------------------------------------|
E-----5-4-3---------------1-----------------------------|

"Mm oo oo uh huh mm hm"
E---5-------3-------3~-xx---1---------------------------------|
B---6-------3-------5~-xx---1---------------------------------|
G---7-------3-------5~-xx---2---------------------------------|
D-------------------------------------------------------------|
A-5-----------5-4-3--------------0h3--------------------------|
E-----5-4-3---------------1---0h1-----------------------------|


E-------------------------------------------------------------------------|
B--------10----13---12--12---10--10---------------------------------------|
G-11h12---------------------------------------9---9/12---11--11------11---|3x
D--------------------------------------11h12------------------------------|
A-------------------------------------------------------------------------|
E-------------------------------------------------------------------------|
Tap to rate this tab
# A B C D E F G H I J K L M N O P Q R S T U V W X Y Z