Song name
# A B C D E F G H I J K L M N O P Q R S T U V W X Y Z

The Swamp Donkey - The Trouble With Crusades tab

tuning-drop b
Db|-------|
Ab|-------|
E-|-------|
B-|-------|
Gb|-------|
B-|-------|

pm-palm mute
h-hammer on
p-pull off
b-bend
~-vibra

WOW!!! i can't believe i'm doing the first tab for this band!!
well, here goes. i've tabbed it for drop b but i'm not sure if
they use this or a seven string, but anyway it sounds good and
i tried to get it as accurate as possible...

intro
|----------------------------------------------------------------|
|----------------------------------------------------------------|
|----------------------------------------------------------------|
|----------------------------------------------------------------|
|----------------------------3h5p3p0-----------------------3--2~-|
|-0---3p0-3---0---3p0-3---5h7-------0---3p0-3---0---3p0-3p0------|

|-------------------------------------------------------------------|
|-------------------------------------------------------------------|
|-------------------------------------------------------------------|
|-------------------------------------------------------------------|
|----------------------------3h5p3p0----------------5--3------------|
|-0---3p0-3---0---3p0-3---5h7-------0---3p0-3---0--------7--6--5--3-|

play intro 2 times

|----
|----
|----
|-0--
|-0--
|-0--(end of second time)

verse
|-----------------------------------------------------------|
|-----------------------------------------------------------|
|-----------------------------------------------------------|
|-0-------0---0----------------0-------0---0----------------|
|-0-------0---0----------------0-------0---0----------------|
|-0---000-0---0---000000000000-0---000-0---0---000000-5b-3~-|
pm    ---         ------------     ---         -------------|

|------------------------------------------------------------|
|------------------------------------------------------------|
|------------------------------------------------------------|
|-0-------0---0----------------------------------------------|
|-0-------0---0----------------------------------------------|
|-0---000-0---0---000000000-5-8---0-7-10---0-5-8---0-3-2---3-|
pm    ---         -------------------------------------------|

play verse 3 times


post-verse
|------------------------------------------------------------|
|------------------------------------------------------------|
|------------------------------------------------------------|
|------------------------------------------------------------|
|-----5p3h5-----------------------------5p3h5----------------|
|-0-----------0-7-5---0-5-3---0-2---0-----------0-7-5~-----3-|

|------------------------------------------------------------|
|------------------------------------------------------------|
|------------------------------------------------------------|
|------------------------------------------------------------|
|-----5p3h5-----------------------------5p3h5----------------|
|-0-----------0-7-5---0-5-3---0-2---0-----------0-7-5~-----3-|

|-----
|-----
|-10--
|-10--
|-8---
|-8x13(end of second time)

repeat verse 2 times
repeat post-verse 1 times

alternative post-verse
|------------------------------------------------|
|------------------------------------------------|
|-----7-7-----------------------7-7--------------|
|-0---7-7---5-5---3-3---0---0---7-7---5-5------3-|
|-0---5-5---5-5---3-3---0---0---5-5---5-5------3-|
|-0---------5-5---3-3---0---0---------5-5------3-|

|------------------------------------------------|
|------------------------------------------------|
|-----7-7-----------------------7-7--------------|
|-0---7-7---5-5---3-3---0---0---7-7---5-5------3-|
|-0---5-5---5-5---3-3---0---0---5-5---5-5------3-|
|-0---------5-5---3-3---0---0---------5-5------3-|

|-----
|-----
|-10--
|-10--
|-8---
|-8x13

repeat verse 3 times
repeat post-verse 1 time
repeat alternative post-verse 1 time

|----------|
|----------|
|-10-------|
|-10-----0-|
|-8------0-|
|-8x24---0-|

breakdown
|------------------------------------------------------------|
|------------------------------------------------------------|
|------------------------------------------------------------|
|------------------------------------------------------------|
|-0---3---3---0---3---3---0---3---0---3---3---0---3---0------|
|-0---3---3---0---3---3---0---3---0---3---3---0---3---0---6--|b
pm-   -   -   -   -   -   -   -   -   -   -   -   -   -

|------------------------------------------------------------|
|------------------------------------------------------------|
|------------------------------------------------------------|
|------------------------------------------------------------|
|-0---3---3---0---3---3---0---3---0---3---3---0---3---0------|
|-0---3---3---0---3---3---0---3---0---3---3---0---3---0---6--|b
pm-   -   -   -   -   -   -   -   -   -   -   -   -   -

|------------------------------------------------------------|
|------------------------------------------------------------|
|------------------------------------------------------------|
|-0---3---3---0---3---3---0---3---0---3---3---0---3---0------|
|-0---3---3---0---3---3---0---3---0---3---3---0---3---0------|
|-0---3---3---0---3---3---0---3---0---3---3---0---3---0---6--|b

|------------------------------------------------------------|
|------------------------------------------------------------|
|------------------------------------------------------------|
|-0---3---3---0---3---3---0---3---0---3---3---0---3---0------|
|-0---3---3---0---3---3---0---3---0---3---3---0---3---0------|
|-0---3---3---0---3---3---0---3---0---3---3---0---3---0---6--|b

bridge
|------------------------------------------------------------------|
|-----------------------5------------------------------------------|
|-------------7---7-----5--------------------7---7-----5-----------|
|-0-----0-----7---7-----5--------0-----0-----7---7-----3-----5---5-|
|-0-----0-----5---5-----3--------0-----0-----5---5-----3-----5---5-|
|-0-----0------------------------0-----0---------------3-----5---5-|

play bridge 6 times
repeat intro 1 time
repeat verse 2 times
repeat post-verse 1 time
repeat alternative post-verse 1 time
repeat breakdown 1 time

and that's about it. pretty sure i left out a couple a bits
done by second guitar, but besides that all the basic stuff is
all here.

www.myspace.com/theswampdonkey
Tap to rate this tab
# A B C D E F G H I J K L M N O P Q R S T U V W X Y Z