Song name
# A B C D E F G H I J K L M N O P Q R S T U V W X Y Z

The Swell Season - Low Rising tab

-----------------------------------------------------------------------
			                      Low Rising - The Swell Season
-----------------------------------------------------------------------
Tabbed by: CRobinson, Mpls, myspace.com/robinsonproject

Tuning: Standard

INTRO
e|-------------------------------9-------|
B|-9-----------------------------12------|
G|-9-----------------------------9-------|
D|-9-----11h9--------------------9-------|
A|-9h11------11h9-9h11-----------11------|
E|-0--------------------------/9-9-------| X2
   E                             C#m              

VERSE
e|---------9-------|
B|-9-------12------|
G|-9-------9-------|
D|-9-------9-------|
A|-9h11----11------|
E|-0----/9-9-------| X2
   E      C#m

CHORUS
e|-5-----4-----0---|
B|-5-----5-----0---|
G|-6-----6-----1---|
D|-7-----6-----2---|
A|-7-----4-----2---|
E|-5-----------0---| x3
   A    C#m    E

CHORUS
e|-5-----4-----2---|
B|-5-----5-----2---|
G|-6-----6-----2---|
D|-7-----6-----4---|
A|-7-----4-----4---|
E|-5-----------2---| x1
   A    C#m    Fm

ENDING
e|------------------0-------------------4-----2-----0--|
B|------------------0-------------------5-----4-----0--|
G|------------------1-------------------6-----4-----1--|
D|-----2-----2------2-------2-----2-----6-----4-----2--|
A|-2h4---2h4---2----2---2h4---2h4---2-4-4-----2-----2--|
E|---------------0--0-------------------------------0--| 
                    E                  C#m    B     E


| /  slide up
|   slide down
| h  hammer-on
| p  pull-off
| ~  vibrato
| +  harmonic
| x  Mute note
| ^  Bend
 
Tap to rate this tab
# A B C D E F G H I J K L M N O P Q R S T U V W X Y Z