Song name
# A B C D E F G H I J K L M N O P Q R S T U V W X Y Z

The Swellers - Stars tab

e|------------------------------------------------------------------------|
B|------------------------------------------------------------------------|
G|--13b-13b-13-11--13--13b----13b-13b-13-11---10-11-13--13-11-13b-13------|
D|------------------------------------------------------------------------|
A|------------------------------------------------------------------------|
E|------------------------------------------------------------------------|

e|------------------------------------------------------------------------|
B|-------------------------------------------------------------14b-14-----|
G|-11-13-13brb-13--13b-13-11--10-11--------10-11-10--13b-11---------------|
D|----------------------------------13--13--------------------------------|
A|------------------------------------------------------------------------|
E|------------------------------------------------------------------------|

e|------------------------------------------------------------------------|
B|-12-11------------------------------------------------------------------|
G|-------13-11----------10-11-10--13b-11----------------------------------|
D|-------------13---13----------------------------------------------------|
A|------------------------------------------------------------------------|
E|------------------------------------------------------------------------|


************************************

| /   slide up
| \   slide down
| h   hammer-on
| p   pull-off
| ~   vibrato
| +   harmonic
| x   Mute note
| b   Bend
| pb  Pre-bend
| br  Bend release
| pbr Pre-bend release
| brb Bend release bend

************************************
Tap to rate this tab
 
# A B C D E F G H I J K L M N O P Q R S T U V W X Y Z