The Swellers - Fire Away tab

Fire Away - The Swellers
tabbed out by George Kirk; it's my first ever tab, sorry if there is mistakes.

DROP D TUNING.

X = Palm Muted
~ = Let note ring out


Intro:

E------------|-(x4)-------------------------------------------------------|
B------------|------------------------------------------------------------|
G------------|------------------------------------------------------------|
D-1--3--5-5--|------------------------------------------------------------|
A-1--3--5-5--|------------------------------------------------------------|
D-1--3--5-5--|------------------------------------------------------------|

Verse:
'load up the flares and'     FIRE AWAYYYYYYY!

E------------------------------------------------------------------------|
B------------------------------------------------------------------------|
G-33333333333-222222222222-----------------------------------------------|
D-33333333333-222222222222---555-3h5-11111-3h5-11111-3h5-33333-----------|
A-11111111111-000000000000---555-3h5-11111-3h5-11111-3h5-33333-----------|
D----------------------------555-3h5-11111-3h5-11111-3h5-33333-----------|
  XXXXXXXXXXX XXXXXXXXXXXX
'search without rescue!'

E------------------------------------------------------------------------|
B------------------------------------------------------------------------|
G-33333333333-222222222222-----------------------------------------------|
D-33333333333-222222222222---555-3h5-11111-3h5-11111-3h5-33333-----------|
A-11111111111-000000000000---555-3h5-11111-3h5-11111-3h5-33333-----------|
D----------------------------555-3h5-11111-3h5-11111-3h5-33333-----------|
  XXXXXXXXXXX XXXXXXXXXXXX
(repeat until chorus)

Chorus:
        'abandon ship!         'fend for yourselves!'
E------------------------------------------------------------------------|
B------------------------------------------------------------------------|
G------------------------------------------------------------------------|
D-11111--33333--555555555--11111--33333--5555555555----------------------|
A-11111--33333--555555555--11111--33333--5555555555----------------------|
D-11111--33333--555555555--11111--33333--5555555555----------------------|

(repeat chorus until next verse)
~VERSE~

'priorities change,and hope fades awayyyyy!'

E------------------------------------------------------------------------|
B------------------------------------------------------------------------|
G-33333333333-222222222222-----------------------------------------------|
D-33333333333-222222222222---555-3h5-11111-3h5-11111-3h5-33333-----------|
A-11111111111-000000000000---555-3h5-11111-3h5-11111-3h5-33333-----------|
D----------------------------555-3h5-11111-3h5-11111-3h5-33333-----------|

repeat verse until bass fill at 1:50

~CHORUS~

Solo/Bridge

Rhythm:

E--------------------|--------------------|-------------------------------|
B--------------------|--------------------|-------------------------------|
G--------------------|--------------------|-------------------------------|
D-1111-3333-55555555-|-1111-3333-11111111-|-------------------------------|
A-1111-3333-55555555-|-1111-3333-11111111-|-------------------------------|
D-1111-3333-55555555-|-1111-3333-11111111-|-------------------------------|

Lead: (x2)

E----------------|--------------------|------------------------------------|
B---10p9---------|---10p9-------------|------------------------------------|
G-2------11p9-6~-|-2------11p9-6/4/2~-|------------------------------------|
D----------------|--------------------|------------------------------------|
A----------------|--------------------|------------------------------------|
D----------------|--------------------|------------------------------------|

Bridge:

E------------------|-------------(x2)|----------------------------|
B------------------|-----------------|----------------------------|
G-----3333-----333-|-----333---------|----------------------------|
D-111-3333-111-333-|-111-333-3h5p3~--|-555-3h5-111-3h5------------|(repeat first part)
A-111-1111-111-111-|-111-111-3h5p3~--|-555-3h5-111-3h5------------|
D-111------111-----|-111-----3h5p3~--|-555-3h5-111-3h5------------|
  XXX      XXX       XXX

'and all you did was break another tie'

E------------------------------------------------------------------------|
B------------------------------------------------------------------------|
G----------------------------------------333-----------------------------|
D-55555-33333------------------------111-333-----------------------------|
A-55555-33333------------------------111-111-----------------------------|
D-55555-33333------------------------111---------------------------------|
                                     XXX

Fill
E------------------------------------------------------------------------|
B------------------------------------------------------------------------|
G------------------------------------------------------------------------|
D------------------------------------------------------------------------|
A-7h8p7h7~---7h8p7-6~---7h8p7--------------------------------------------|
D------------------------------------------------------------------------|

Chorus:
        'abandon ship!         'fend for yourselves!'
E------------------------------------------------------------------------|
B------------------------------------------------------------------------|
G------------------------------------------------------------------------|
D-11111--33333--555555555--11111--33333--5555555555----------------------|
A-11111--33333--555555555--11111--33333--5555555555----------------------|
D-11111--33333--555555555--11111--33333--5555555555----------------------|

 'you've got that sinking feeling!''and nothing else!'
E------------------------------------------------------------------------|
B------------------------------------------------------------------------|
G------------------------------------------------------------------------|
D-11111--33333--555555555--11111--33333--5555555555----------------------|
A-11111--33333--555555555--11111--33333--5555555555----------------------|
D-11111--33333--555555555--11111--33333--5555555555----------------------|

for outro, do the solo with the rhythm.

end:

E-----------------------------------------------------------------------|
B-----------------------------------------------------------------------|
G-----------------------------------------------------------------------|
D--555-3h5-111-3h5-111-3h5-3--------------------------------------------|
A--555-3h5-111-3h5-111-3h5-3--------------------------------------------|
D--555-3h5-111-3h5-111-3h5-3--------------------------------------------|
Tap to rate this tab
 
# A B C D E F G H I J K L M N O P Q R S T U V W X Y Z