Song name
# A B C D E F G H I J K L M N O P Q R S T U V W X Y Z

The Swellers - Tunnel Vision tab

Not all of it but it's still something for everyone to add on to.

Verse
------------------------|
------------------------|
7-----------------------|
7-X32-7-----2-----5-----|X2(Last time slide up from 355 to 577 half way 
5-----7-X32-2-X32-5-X32-|   through)
------5-----0-----3-----|

Chorus
--------------------|
--------------------|
7-------------------|
7-X8-9----5----7----|
5----9-X8-5-X8-7-X8-|
-----7----3----5----|
Tap to rate this tab
 
# A B C D E F G H I J K L M N O P Q R S T U V W X Y Z