The Swellers - Feet First tab

I play this one about 2 times a day. I saw The Swellers play live a few years ago and I 
feel in love with their style. The majority of this song is the same so I'll only tab 
the basics of the intro. If you have any questions email me at maximo246@yahoo.com

Intro
----------------------------------|
----------------------------------|
----------------------------------|
--3------3---------3---------3----| X2
----X8-----X8---0----X8---1----X8-|
1------3--------------------------|

----------------------------------|
----------------------------------|
--3-------------------------------|
5----X8---3-------2---------------| X1
--------1---X6--1---X2------------|
----------------------------------|

--------------------------------------|
--------------------------------------|
55555555-55555555-3333333-3-----------|
33333333-55555555-3333333-3(Let Ring)-| X1
---------33333333-1111111-1-----------|
--------------------------------------|
xxxxxxxx xxxxxxxx xxxxxxx

Verse
-------------------------------------|
-------------------------------------|
10-----10----10----777777-9-10101010-|
X--X32-X--X8-X--X8-XXXXXX-X-XXXXXXX--| X3
8------8-----7-----555555-7-8888888--|
-------------------------------------|

Pre-Chorus
-------------|
-------------|
-------------|
7-----3------| X1
5-X16-1-X16--|
-------------|

Chorus
------------------------------|
------------------------------|
55555555-55555555-33333333----|
33333333-55555555-33333333----| X2
---------33333333-11111111----|
------------------------------|

-----------------------------------|
-----------------------------------|
77777777-33333333-5555555555555555-|
77777777-33333333-5555555555555555-|(This is the same for the 'Woaho' part
55555555-11111111-3333333333333333-| at the end of the song)
-----------------------------------|
Tap to rate this tab
 
# A B C D E F G H I J K L M N O P Q R S T U V W X Y Z