The Swellers - The Best I Ever Had tab

[Preliminary Wall of text from JackD]
Since no one submitted a tab for this song I decided to figure it out myself while I was 
being disowned for a music project. I don't really know the

anything about the band, but the intro riff caught my attention and I figured I'd tab it 
for funsies. To those I play with, thanks for ditching after

all that hard work! >8^(

Tuning: 1/2 step down (tune sixth fret of low E to A string then tune A to E on low E's 
fifth like you would in standard and so forth for the rest)

[Song... Finally]
*=palm mute; X2=play twice; / =slide; ~ =let it ring, baby, add some vibrato if you're 
feeling it;

[Intro]
Eb|--2-22-2- - -2-22-2- - -4-44-4- - -6-66-6-- --|o
Bb|--2-22-2- - -2-22-2- - -4-44-4- - -7-77-7-- --|
Gb|--4-44-4- X2-3-33-3- X2-6-66-6- X2-8-88-8-- x2|
Db|--4-44-4- - -4-44-4- - -4-44-4- - -8-88-8-- --|
Ab|--2-22-2- - -4-44-4- - -4-44-4- - -6-66-6-- --|
Eb|--2-22-2- - -2-22-2- - -x-xx-x- - -x-xx-x-- --|o

[Verse]-You can reuse the intro for this but I think a traditional punk rock power chord 
riff works better, like so
Eb|-------------- - ------------- - -------------- -  ------------- --|o
Bb|-------------- - ------------- - -------------- -  ------------- --|
Gb|--4----------- X2------------- X2-6------------ X2 8------------ X2|
Db|--4-4-4-4-4-4- - 4------------ - -6-6-6-6-6-6-6 -  8-8-8-8-8-8-8 --|
Ab|--2-2-2-2-2-2- - 4-4-4-4-4-4-4 - -4-4-4-4-4-4-4 -  6-6-6-6-6-6-6 --|
Eb|-------------- - 2-2-2-2-2-2-2 - -------------- -  ------------- --|o
     ! * * * * *    ! * * * * * *    ! * * * * * *    ! * * * * * *

[Verse/Lead] use up-picking on all
Eb|----------------------------|o
Bb|--2/4~-6~7~7~~6~7~6~~7~6~4~~|
Gb|----------------------------|
Db|----------------------------|
Ab|----------------------------|
Eb|----------------------------|o

[Pre-Chorus]
Eb|--------------------------------------|o
Bb|------------4-44-4-44-4/-7-77-7-7-77-7|
Gb|--4---4--4--6-66-6-66-6/-8-88-8-8-88-8|
Db|--4-4-4-444-6-66-6-66-6/-8-88-8-8-88-8|
Ab|--2-4-2-424-4-44-4-44-4/-6-66-6-6-66-6|
Eb|----2---2-2---------------------------|o

[Chorus]
Eb|------------------------------ - -----------------------------------------------------------|
Bb|--4-4-4-4-7-7-7-7-7-7-2-2-2-2- - -7-7-7-7-7-7-7-7-4-4-4-4-4-4-4-4-2-2-2-2-2-2-2-2-8-8-8-8-2~|
Gb|--6-6-6-6-8-8-8-8-8-8-4-4-4-4- X2-8-8-8-8-8-8-8-8-6-6-6-6-6-6-6-6-4-4-4-4-4-4-4-4-6-6-6-6-4~|
Db|--6-6-6-6-8-8-8-8-8-8-4-4-4-4- - -8-8-8-8-8-8-8-8-6-6-6-6-6-6-6-6-4-4-4-4-4-4-4-4-6-6-6-6-4~|
Ab|--4-4-4-4-6-6-6-6-6-6-2-2-2-2- - -6-6-6-6-6-6-6-6-4-4-4-4-4-4-4-4-2-2-2-2-2-2-2-2-4-4-4-4-2~|
Eb|------------------------------ - -----------------------------------------------------------|

[Bridge]
Eb|--------|
Bb|-------4|
Gb|--4443-6|
Db|--4444-6|
Ab|--2224-4|
Eb|-----2--|
Tap to rate this tab
 
# A B C D E F G H I J K L M N O P Q R S T U V W X Y Z