Song name
# A B C D E F G H I J K L M N O P Q R S T U V W X Y Z

The Switch - Perut tab

                       *** MattRevenger's Tab ***
     I have no rights to this song, all rights goes to The.Switch
     Check them out at bandzone.cz/theswitch .......

Band:  The.Switch
Song:  Peruť
Album: Svit
Year:  2006



Intro
pm .. .. ..    .. .. ..    .. .. ..    .. .. ..     .. .. ..    .. .. ..
d----------------------------------------------------------------------------|
a----------------------------------------------------------------------------|
F-----------10----------12----------14-----------15----------19----------9---|
C--00-00-00-12-00-00-00-14-00-00-00-15-00-00-00--17-00-00-00-21-00-00-00-11--|
G----------------------------------------------------------------------------|
C----------------------------------------------------------------------------|


d------------------------------------------|
a------------------------------------------|
F------------------------------------------|
C-3-2-5-2-3-xx-7-5-8-5-7-xx----------------|
G-x-x-x-x-x-xx-x-x-x-x-x-xx----------------|
C-3-2-5-2-3-xx-7-5-8-5-7-xx----------------|

d--------------------------------------------|
a--------------------------------------------|
F-7-5-9-5-7----10-9-12-9-10------------------|
C-x-x-x-x-x-xx-x--x-x--x-x-------------------|
G-5-3-7-3-5-xx-8--7-10-7-8-------------------|
C-----------xx-------------------------------|


Verse
d------------------------------------------|
a------------------------------------------|
F------------------------------------------|
C------------------------------------------|
G------------------------------------------|
C-00-15-14-17-14-15-00-15-14-17-14-15------|

d-----------------------------------------------------|
a-----------------------------------------------------|
F-----------------------------------------------------|
C-----------------------------------------------------|
G---10-8-7-8-7----7-8-5-7-8---10-8-7-8-7----8-7-5-4-5-|
C-88-----------55----------77------------77-----------|

d------------------------------------------|
a------------------------------------------|
F------------------------------------------|
C------------------------------------------|
G------------------------------------------|
C-00-15-14-17-14-15-00-15-14-17-14-15------|

d----------------------------------------|
a----------------------------------------|
F----------------------------------------|
C----------------------------------------|
G---10-8-7-8-7----7-8-5-7-8---10-8-7-8-7-|
C-88-----------55----------77------------|



Chorus
d---------'----------------------------------------|
a---------'----------------------------------------|
F---------'-------------15-14-12-10-9-----10-9-7-4-|
C----12p0-'-------------x--x--x--x--x-----x--x-x-x-|
G-00-----0'-7-8-10-00---13-12-10-8--7-00--8--7-5-6-|
C-00------'-7-8-10-00-----------------00-----------|

d--------------------------|
a--------------------------|
F--3-2-2-3-----------------|
C--3-3-3-3----3h5xxx-2-----|
G--1-1-1-1-3-3---xxx-3-----|
C----------3-3---xxx-------|

Bridge
d------------------|
a------------------|
F------------------|
C-----12p0---------|
G-0-0-----0-7-8-10-|
C-0-0-------7-8-10-|

d--------------------------------------------------------------------|
a--------------------------------------------------------------------|
F--10---10------10-12---12------12-14----14-------14-15---15------15-|
C--12-0-12-00-0-12-14-0-14-00-0-14-15--0-15-00-0--15-17-0-17-00-0-17-|
G-----0----00-0-------0----00-0--------0----00-0--------0----00-0----|
C-----0----00-0-------0----00-0--------0----00-0--------0----00-0----|

d--------------------------------------------------------|
a--------------------------------------------------------|
f--15-----15------15-17---17-------17-19---19------19----|
C---x--0---x-00-0--x--x-0-x---00-0--x--x-0--x-00-0--x----|
G--13--0--13-00-0-13-15-0-15--00-0-15-17-0-17-00-0-17----|
C------0-----00-0-------0-----00-0-------0----00-0-------|

d--------------|
a--------------|
F-----(6666)---|
C--77777777----|
G--77777777----|
C--77777777----|

d--------------------------------------------------------------------|
a--------------------------------------------------------------------|
F--10---10------10-12---12------12-14----14-------14-15---15------15-|
C--12-0-12-00-0-12-14-0-14-00-0-14-15--0-15-00-0--15-17-0-17-00-0-17-|
G-----0----00-0-------0----00-0--------0----00-0--------0----00-0----|
C-----0----00-0-------0----00-0--------0----00-0--------0----00-0----|


d--------------------------------------------|
a--------------------------------------------|
f--------------------------------------------|
C--------------------------------------------|
G--1-----1-------1-3---3------3-5----5----5--|
C-----0----00-0------0---00-0-----0---00-0---|



d---------'------------------------------------------|
a---------'------------------------------------------|
F---------'-------------15-14-12-10-9-----10-9-7-4---|
C----12p0-'-------------x--x--x--x--x-----x--x-x-x---|
G-00-----0'-7-8-10-00---13-12-10-8--7-00--8--7-5-6---|
C-00------'-7-8-10-00-----------------00-------------|


d-------------------------'
a-------------------------'
F--3-2-2-3----------------'
C--3-3-3-3----3h5-xxx2----'
G--1-1-1-1-3-3----xxx3----'
C----------3-3----xxx-----'

 Outro              - Dont push the strings
'------------------!--------------------------|
'------------------!--------------------------|
'------------------!--------------------------|
'-xx-x-xx-x-xx-xx-x!--------------------------|
'-xx-x-xx-x-xx-xx-x!--------------------------|
'-xx-x-xx-x-xx-xx-x!-2-3-4-5-6-7-8-9-10-11-12-|

Outro 2
d-------------------------------------------------|
a-------------------------------------------------|
F-------------12-12--12-------------11-11--11-----|
C--------------x--x---x-------------x--x---x------|
G-------------10-10--10-------------9--9---9------|
C--13p013p0-0-----------13p013p0-0----------------|


d-----------------------------------------------------|
a---------------------------------3-3--3--------------|
F-------------7-7---7-------------2-2--2--------------|
C-------------x-x---x---------------------------------|
G-------------5-5---5---------------------------------|
C--13p013p0-0----------13p013p0-0---------------------|


Solo

d-10-10-10-10----------------------------------------------------------------|
a-14v14v14v14v-11--11-11--11---------13----13--------------------------------|
F--------------13v-13v13v-13v-131211----11---11xx-12p11----------------------|
C------------------------------------------------------12-12xx10h12-12-10h12-|
G----------------------------------------------------------------------------|
C----------------------------------------------------------------------------|
Tap to rate this tab
 
# A B C D E F G H I J K L M N O P Q R S T U V W X Y Z