Song name
# A B C D E F G H I J K L M N O P Q R S T U V W X Y Z

The Switch - Za Mostem tab

                      *** MattRevenger's Tab ***

        I have no rights to this song, all rights goes to The.Switch


                Check them out at bandzone.cz/theswitch .......


Band:  The.Switch
Song:  Za Mostem
Album: Svit
Year:  2006



Intro
  .   .   .  .  .  .    .   .  .   .
a-----------------------------------------------|
d-----------------------------------------------|
F-----------------------------5-----------------|
C---8---7--5--4--5----8---7---5--8---7h8p7-*7*--|
G---5---5--5--5--5----5---5------5---5-----*5*--|
C-0---0--0--0---0---0---0---0--0---0------------|

      .  .  .   .   ..   .    .   .   .
a-----------------------------------------------|
d-----------------------------------------------|
F-------------------------------8---5---7-------|
C---8---7--5--4--5-----5----4---8---5---7---*7*-|
G---5---5--5--5--5-----5----5---6---3---5---*5*-|
C-----0--0--0---0---00---0----0---0---0---------|

Break
a---------------------------'
d---------------------------'
F--3-2-0---0-------0--------'
C--------3-----3-2---3-2h3--'
G-1-1-1-1-1---3-3-3-3-3-----'
C---------------------------'

Chorus

'----------------------------------------!
'----------------------------------------!
'---15-14--12-11-12---15-14--17-15-14-15-!
'----------------------------------------!
'---13-12--10-9--10---13-12--15-13-12-13-!
'-0----------------0---------------------!

'----------------------!---------------------------!
'----------------------!---------------------------!
'---15-14--12-11-12----!-8/7-12/11-15/14-12/11-8/7-!
'----------------------!---------------------------!
'---13-12--10-9--10----!-6/5-10/9--13/12-10/9--6/5-!
'-0----------------00--!---------------------------!

'----------------------------------------!
'----------------------------------------!
'---15-14--12-11-12---15-14--17-15-14-15-!
'----------------------------------------!
'---13-12--10-9--10---13-12--15-13-12-13-!
'-0----------------0---------------------!

'----------------------!-----------------!
'----------------------!---10-8--5-------!
'---15-14--12-11-12----!---10-9--6-------!
'----------------------!-----------------!
'---13-12--10-9--10----!-----------------!
'-0----------------00--!-----------------!

a---------------------------'
d---------------------------'
F--3-2-0---0-------0--------'
C--------3-----3-2---3-2h3--'
G-1-1-1-1-1---3-3-3-3-3-----'
C---------------------------'


Verse
(listen song for strumming)
a-----------!
d-----------!
F---7~--6~--!
C---x---x~--!
G---5~--4~--!
C--0--0-----!


Bridge
      ..  ..   ..   ..   ..    ..   ..    You must go CRAZY here!!!!
d!---------------------------------------!----------------------------------|
a!---------------------------------------!----------------------10-8--------|
F!--------------------------------5----7-!----------9--10-12----10-9--------|
C!-----------------5----7----8-----------!-8--10-12-10-10-10----------------|
G!--5-55-755-8-55---55---55----55---55---!-8--8--8--8--8--8-----------------|
C!----55--55---55---55---55----55---55---!-8--8--8--8--8--8-----------------|

Chorus

'----------------------------------------!
'----------------------------------------!
'---15-14--12-11-12---15-14--17-15-14-15-!
'----------------------------------------!
'---13-12--10-9--10---13-12--15-13-12-13-!
'-0----------------0---------------------!

'----------------------!---------------------------!
'----------------------!---------------------------!
'---15-14--12-11-12----!-8/7-12/11-15/14-12/11-8/7-!
'----------------------!---------------------------!
'---13-12--10-9--10----!-6/5-10/9--13/12-10/9--6/5-!
'-0----------------00--!---------------------------!

'----------------------------------------!
'----------------------------------------!
'---15-14--12-11-12---15-14--17-15-14-15-!
'----------------------------------------!
'---13-12--10-9--10---13-12--15-13-12-13-!
'-0----------------0---------------------!

'----------------------!
'----------------------!
'---15-14--12-11-12----!
'----------------------!
'---13-12--10-9--10----!
'-0--------------------!


Bridge 2                                           2x
.......................................................
d------------------------------------------------------|
a------------------------------------------------------|
F------------------------------------------------------|
C----------7-8-----------7-8------7--------------------|
G--5-6-5-6------5-6-5-6------5-6----6------------------|
C------------------------------------------------------|

.......................................................
d------------------------------------------------------|
a------------------------------------------------------|
F------------------------------------------------------|
C----------7-8-----------8-7------7--------------------|
G--5-6-5-6------5-6-5-6------5-6----6------------------|
C------------------------------------------------------|


d-----------------------------------------------------|
a-----------------------------------------------------|
F--7~-7~-7~7~-7-----*7*-------------------------------|
C--x--x--x-x--x------x--------------------------------|
G--5~-5~-5~5~-5~----*5*-------------------------------|
C-----------------------------------------------------|

                                                   2x
.......................................................
d------------------------------------------------------|
a------------------------------------------------------|
F------------------------------------------------------|
C----------8-7-----------7-8------7--------------------|
G--5-6-5-6------5-6-5-6------5-6----6------------------|
C------------------------------------------------------|

Bridge 3
d---------------------------------------------------------|
a--6-6-6-6--6---6-6-6-6--6----5-5-5-5--5------------------|
F--7-7-7-7--7---7-7-7-7--7----6-6-6-6--6------------------|
C--x-x-x-x--x---x-x-x-x--x----x-x-x-x--x----10--6~-----2~-|
G--5-5-5-5--5---5-5-5-5--5----4-4-4-4--4----8---4~-----2~-|
C------------------------------------------------------2~-|


Chorus
'----------------------------------------!
'----------------------------------------!
'---15-14--12-11-12---15-14--17-15-14-15-!
'----------------------------------------!
'---13-12--10-9--10---13-12--15-13-12-13-!
'-0----------------0---------------------!

'----------------------!-----------------!
'----------------------!---10-8--5-------!
'---15-14--12-11-12----!---10-9--6-------!
'----------------------!-----------------!
'---13-12--10-9--10----!-----------------!
'-0----------------00--!-----------------!

'----------------------------------------!
'----------------------------------------!
'----3-2-------------3-2--5--3-2h3-------!
'----x-x-------------x-x--x--x-x-x-------!
'-0--1-0---5-4-5---0-1-0--3--1-0h1-------!
'-0--------5-4-5---0---------------------!

'----------------------!
'----------------------!
'----3-2---------------!
'----x-x---------------!
'-0--1-0---5-4-5-------!
'-0--------5-4-5-------!


Outro-Verse
(listen song for strumming)
a------------!
d------------!
F---7~--6~---!
C---x---x~---!
G---5~--4~---!
C--0--0------!



Outro-Solo
d---------10-----------------------------------------|
a---10--9-14v-11------------10-----9---11------------|
F---10--9-----13vh14p13-----10-----9---13v-----------|
C---------------------------------------------0~~~~~-|
G---------------------------------------------0~~~~~-|
C-12--11----------------12------11------------0~~~~~-|


. p.m
V bend
h Hammer on
p pull of



RevengerRecords
Tap to rate this tab
 
# A B C D E F G H I J K L M N O P Q R S T U V W X Y Z