Guitaretab - guitar tabs
Song name
# A B C D E F G H I J K L M N O P Q R S T U V W X Y Z

The Sword - Under The Boughs tab

The Sword - Under the Boughs

DROP C


This is how I learned it from ear. Thought i'd let other get down on this, cause the sword RULES.
Georgy2477@gmail.com


|--------------------------------------------------------------------------------------|
|--------------------------------------------------------------------------------------|
|--------------------------------------------------------------------------------------|
|--------------------------------------------------------------------------------------|
|----7~--------------------------------------------------------------------------------|
|----7~---------------------------------------x2---------------------------------------|
|----7~-7-7h8-7~-7-7h8-----------------------------------------------------------------|

(acoustic)





|--------------------------------------------------------------------------------------------|
|--------------------------------------------------------------------------------------------|
|--------------------------------------------------------------------------------------------|
|-7~-7-7h8-7~----------------------7~-7-7h8-7~--7-7-7h8--------------------------------------|
|-7~-7-7h8-7~---------x4---------------------------------------7~-7-7h8-7~\------------------|
|-7~-7-7h8-7~--------------------------------------------------------------------------------|




A


|--------------------------------------------------------------------------------------|
|--------------------------------------------------------------------------------------|
|--------------------------------------------------------------------------------------|
|--------------------------------------------------------------------------------------|
|---555555-777777-888888-10101010101010-------x2---------------------------------------|
|--------------------------------------------------------------------------------------|
(Palm muted)


|--------------------------------------------------------------------------------------|
|--------------------------------------------------------------------------------------|
|--------------------------------------------------------------------------------------|
|---555555-777777-888888--101010101010---x2--------------------------------------------|
|--------------------------------------------------------------------------------------|
|--------------------------------------------------------------------------------------|


|--------------------------------------------------------------------------------------|
|--------------------------------------------------------------------------------------|
|--------------------------------------------------------------------------------------|
|--7h8-7-----7/10\7-------7--8--7--5-3--0-0--0000--------------------------------------|
|--7h8-7-----5/8--\5------7--8--7--5-3--0-0--0000--------------------------------------|
|--7h8-7------------------7--8--7--5-3--0-0--0000--------------------------------------|
                                        . .  ....



|--------------------------------------------------------------------------------------|
|--------------------------------------------------------------------------------------|
|-----7h8-7---7/10\7------7-8-7---5-3-3/5------5---------------------------------------|
|-----7h8-7---5/8--\5-----7-8-7---5-3-3/5------5---------------------------------------|
|-----7h8-7---------------7-8-7---5-3-3/5--875-5---------------------------------------|
                                    . .    ...   



|--------------------------------------------------------------------------------------|
|--------------------------------------------------------------------------------------|
|--------------------------------------------------------------------------------------|
|--7h8-7-----7/10\7-------7--8--7--5-3--0-0--0000--------------------------------------|
|--7h8-7-----5/8--\5------7--8--7--5-3--0-0--0000--------------------------------------|
|--7h8-7------------------7--8--7--5-3--0-0--0000--------------------------------------|
                                        . .  ....


|--------------------------------------------------------------------------------------|
|--------------------------------------------------------------------------------------|
|-----7h8-7---7/10\7------7-8-7---5-3-3/5------5---------------------------------------|
|-----7h8-7---5/8--\5-----7-8-7---5-3-3/5------5---------------------------------------|
|-----7h8-7---------------7-8-7---5-3-3/5--875-5---------------------------------------|
                                    . .    ...   


|--------------------------------------------------------------------------------------|
|--------------------------------------------------------------------------------------|
|--------------------------------------------------------------------------------------|
|--------------------------------------------------------------------------------------|
|--------------------------------------------------------------------------------------|
|----8-7-5-7-5-3-2---2-3-2---2/7-7-7h8-7~-7-7h8-7~-------------------------------------|



|--------------------------------------------------------------------------------------|
|--------------------------------------------------------------------------------------|
|--------------------------------------------------------------------------------------|
|--------------------------7\\---------------------------------------------------------|
|--------------------------7\\---------------------------------------------------------|
|------7-7h8-7~-7-7h8-7~---7\\---------------------------------------------------------|




|--------------------------------------------------------------------------------------------|
|--------------------------------------------------------------------------------------------|
|--------------------------------------------------------------------------------------------|
|-7~-7-7h8-7-7~------------------------------------------------------------------------------|
|-7~-7-7h8-7-7~---------x3------10-8-7-7~----------------------------------------------------|
|-7~-7-7h8-7-7~------------------------------------------------------------------------------|

[ Tab from: http://www.guitaretab.com/t/the-sword/110477.html ]
|--------------------------------------------------------------------------------------------|
|--------------------------------------------------------------------------------------------|
|--------------------------------------------------------------------------------------------|
|-7~-7-7h8-7-7~----------7~-7-7h8-5~-5~-5-----5-5/8------------------------------------------|
|-7~-7-7h8-7-7~----------7~-7-7h8-5~-5~-5-----5-5/8------------------------------------------|
|-7~-7-7h8-7-7~----------7~-7-7h8-5~-5~-5-----5-5/8------------------------------------------|


|--------------------------------------------------------------------------------------------|
|--------------------------------------------------------------------------------------------|
|--------------------------------------------------------------------------------------------|
|-7~-7-7h8-7-7~------------------------------------------------------------------------------|
|-7~-7-7h8-7-7~---------x3------10-8-7-7~----------------------------------------------------|
|-7~-7-7h8-7-7~------------------------------------------------------------------------------|



|--------------------------------------------------------------------------------------------|
|--------------------------------------------------------------------------------------------|
|--------------------------------------------------------------------------------------------|
|-7~-7-7h8-7-7~----------7~-7-7h8-3~-3~-3~-----1~--------------------------------------------|
|-7~-7-7h8-7-7~----------7~-7-7h8-3~-3~-3~-----1~--------------------------------------------|
|-7~-7-7h8-7-7~----------7~-7-7h8-3~-3~-3~-----1~--------------------------------------------|


|-------------------------------------------------------------------------------------------|
|-------------------------------------------------------------------------------------------|
|-------------------------------------------------------------------------------------------| 
|-------------------------------------------------------------------------------------------|  
|-------------------------------------------------------------------------------------------|
|-0h1111111p00000000h333333p000000h111111p000000--0-8-0-8-0-8--|
     ......  ......   .....  .....  .....  .....  .   .   .



|-----------------------------------------------------------------|
|-----------------------------------------------------------------|
|-----------------------------------------------------------------|
|-------------------------------------------------8~--------------|
|-------------------------------------------------8~--------------|
|-0h1111111p00000000h333333p000000h111111p000000--8~--------------|
     ......  ......   .....  .....  .....  ..... 




|----------------------------------------------------------------------------------------|
|----------------------------------------------------------------------------------------|
|----------------------------------------------------------------------------------------|
|------10--10-8-7-5---5-5-7-7/8-----8-7-7--0-0-------------------------------------------|
|------10--10-8-7-5---5-5-7-7/8-----8-7-7--0-0-------------------------------------------|
|------10--10-8-7-5---5-5-7-7/8-----8-7-7--0-0-------------------------------------------|
              . .       . .           . .  . . 

|----------------------------------------------------------------------------------------|
|----------------------------------------------------------------------------------------|
|----------------------------------------------------------------------------------------|
|------10--10-8-7-5---5-5-7-7/8-----8-7-7--3-3-------------------------------------------|
|------10--10-8-7-5---5-5-7-7/8-----8-7-7--3-3-------------------------------------------|
|------10--10-8-7-5---5-5-7-7/8-----8-7-7--3-3-------------------------------------------|
              . .       . .           . .    
|----------------------------------------------------------------------------------------|
|----------------------------------------------------------------------------------------|
|----------------------------------------------------------------------------------------|
|------10--10-8-7-5---5-5-7-7/8-----8-7-7--0-0-------------------------------------------|
|------10--10-8-7-5---5-5-7-7/8-----8-7-7--0-0-------------------------------------------|
|------10--10-8-7-5---5-5-7-7/8-----8-7-7--0-0-------------------------------------------|
              . .       . .           . .  . . 

|---------------------------------------------------------------------------------------|
|---------------------------------------------------------------------------------------|
|---------------------------------------------------------------------------------------|
|------10--10-8-7-5---5-5-7-7/8-----8-13-13\12------------------------------------------|
|------10--10-8-7-5---5-5-7-7/8-----8-13-13\12------------------------------------------|
|------10--10-8-7-5---5-5-7-7/8-----8-13-13\12------------------------------------------|
              . .       . .              



repeat from starting at A


|--------------------------------------------------------------------------|
|--------------------------------------------------------------------------|
|--------------------------------------------------------------------------|
|----3"--5"--8"--5"----13"--12"---------------3"--5"--8"-5"-3/5"-3"--------|   
|--------------------------------------------------------------------------|
|--------------------------------------------------------------------------|



|--------------------------------------------------------------------------|
|--------------------------------------------------------------------------|
|--------------------------------------------------------------------------|
|--333-555-888-555---131313131313-121212121212-----------------------------|
|--333-555-888-555---131313131313-121212121212-----------------------------|
|--333-555-888-555---131313131313-121212121212-----------------------------|



|--------------------------------------------------------------------------|
|--------------------------------------------------------------------------|
|--------------------------------------------------------------------------|
|--333-555-888-555---3/55555-333333----------------------------------------|
|--333-555-888-555---3/55555-333333----------------------------------------|
|--333-555-888-555---3/55555-333333----------------------------------------|


|-------------------------------------------------------------------------------|
|-------------------------------------------------------------------------------|
|-------------------------------------------------------------------------------|
|--3/55555-333333-------------3/55555-333333------5~\---------------------------|
|--3/55555-333333-----x4------3/55555-333333------5~\---------------------------|
|--3/55555-333333-------------3/55555-333333------5~\---------------------------|
Related for Under The Boughs tab
×
Best way to learn
"Under The Boughs"