Song name
# A B C D E F G H I J K L M N O P Q R S T U V W X Y Z

The Sword - Maiden Mother Crone tab

Help us improve GuitareTab! Take a short survey!
                          Maiden, Mother, & Crone

Tabbed by: Stephen Earnest
Email: steveman1236@gmail.com

Okay this song is a little tricky. Im not sure if I got it all right but I got close. 
a great song. Enjoy!

Tuning: Standard C Tuning

Intro
|--------------------------------------------------------------------------|
|--------------------------------------------------------------------------|
|-------------------9b-----------------------------------------------------|
|-------5-------5p-5---------5----9-99-10/9--------------------------------|
|2-2-2/7-7-5-5-7--7---2-2-2/7-7-5-7-77--8/7--------------------------------|
|0-0------------------0-0--------------------------------------------------|

|--------------------------------------------------------------------------|
|--------------------------------------------------------------------------|
|------------9br10b--------------------------------------------------------|
|-------5-------------------5----------------------------------------------|
|2-2-2/7-7-5---------2-2-2/7-7-5-3-2/5-------------------------------------|
|0-0-----------------0-0---------------------------------------------------|

Pre-Verse Riff (Repeat 4x)
|--------------------------------------------------------------------------|
|--------------------------------------------------------------------------|
|--------------------------------------------------------------------------|
|-----------5---5p-------------7---7p--------------------------------------|
|7-5-7-5-5h7-5h7--7-7-5-7-5-5h7-5h7--7-------------------------------------|
|--------------------------------------------------------------------------|

Verse 1 Riff (Repeat 4x)                      Play this after 4th time
|--------------------------------------------|-----------------------------|
|--------------------------------------------|-----------------------------|
|--------------------------------------------|--7br12b---------------------|
|99999-12-7-99999-7-10-99999-12-7-99999-7-10-|5b---------------------------|
|77777-10-5-77777-5--8-77777-10-5-77777-5--8-|-----------------------------|
|--------------------------------------------|-----------------------------|

Chorus (Repeat 2x)
|--------------------------------------------------------------------------|
|--------------------------------------------------------------------------|
|9-------9-----------------------------------------------------------------|
|9--7/12-9--12/7-----------------------------------------------------------|
|7--5/10-7--10/5-----------------------------------------------------------|
|--------------------------------------------------------------------------|

Pre-Verse Riff x2
Verse 2
Chorus x4
Intro Riff
Pre-Verse Riff x2

Bridge (Repeat 4x)
|--------------------------------------------------------------------------|
|--------------------------------------------------------------------------|
|--------------------------------------------------------------------------|
|9-7-9-7-9-7-7-7h9---------------------------------------------------------|
|--------------------------------------------------------------------------|
|--------------------------------------------------------------------------|

Guitar Solo

I don't the solo but I'm working on it. Instead I have the rhythm guitar. Repeat this twice.
|--------------------------------------------------------------------------|
|--------------------------------------------------------------------------|
|-----11-9--11-9-7---------------------------------------------------------|
|9-12--9-7---9-7-5-9---9---------------------------------------------------|
|7-10--------------7-5h7---------------------------------------------------|
|--------------------------------------------------------------------------|

Verse 3
Chorus x4

Outro A
|--------------------------------------------------------------------------|
|--------------------------------------------------------------------------|
|-----11-9--11-9-7---------------------------------------------------------|
|9-12--9-7---9-7-5-9---9---------------------------------------------------|
|7-10--------------7-5h7---------------------------------------------------|
|--------------------------------------------------------------------------|

Outro B (Repeat 4x)                                        Play this on 4th
|----------------------------------------------------------|---------------|
|----------------------------------------------------------|---------------|
|----------------------------------------------------------|---------------|
|----------------------------------------------------------|--9/-----------|
|7-5-7-5-7-5-5-5h7-----------------------------------------|--7/-----------|
|----------------------------------------------------------|---------------|

And thats it. Email me if you got any other ideas on how it goes.
Related for Maiden Mother Crone tab