Guitaretab - guitar tabs
Song name
# A B C D E F G H I J K L M N O P Q R S T U V W X Y Z

The Sword - Fire Lances Of The Anciet Hyperzephryians tab

Tabbed by: Stephen Earnest
Email: steveman1236@gmail.com

Tuning: Standard C Tuning

This song is amazing! Email me if you have any idea how the solo goes. Iím not real good 
them. This is my first tab.

Intro A
|--------|---------------------------------------------------------|
|-Cymbal-|---------------------------------------------------------|
|---Fill---|-------------------------------------------------------|
|----In---|--10/9---7-9-10----9--11-12-----------------------------|
|---------|---8/7---5-7-8-----7--9-10------------------------------|
|---------|-------0---------0-----------0--1111-4444-3333-2222-----| x2

Intro B
|-------------------------------------------------------------------------|
|-------------------------------------------------------------------------|
|-------------------------------------------------------------------------|
|10-9-----------7--9-10----------9-11-12----------------------------------|
|-8/7-----------5-7--8-----------7-9--10----------------------------------|
|-----0-00000----------0-00000-----------0-00000--1111-4444-3333-2222-----| x2

At end of second time, play a open note on the C string.

Then a pauseÖ

Verse Riff
|----------------------------------------------------------------|
|----------------------------------------------------------------|
|----------------------------------------------------------------|
|9-----9------9----10----10--9-----9-----9-----7-9-10------------|
|7-777-7-777-7-777-8--7--8--7-777-7-777-7-777-5-7-8--------------| x4
|----------------------------------------------------------------|

Verse 1
|-------------------------------------------------------------|
|-------------------------------------------------------------|
|-------------------------------------------------------------|
|9-----9------9-----9-----9-7-9-----9------9-----9------12----|
|7-777-7-777-7-777-7-777-7-5-7-777-7-777-7-777-7-7777-10------|
|-------------------------------------------------------------|

|----------------------------------------------------------------|
|----------------------------------------------------------------|
|----------------------------------------------------------------|
|7-----7------7-----7-----7-10-9----9------9-----9-----10--10----|
|5-555-5-555-5-555-5-555-5-8-7-777-7-777-7-777-7-777-8-7-8-------|
|----------------------------------------------------------------|

|-------------------------------------------------------------|
|-------------------------------------------------------------|
|-------------------------------------------------------------|
|9-----9------9-----9-----9-7-9-----9------9-----9------12----|
|7-777-7-777-7-777-7-777-7-5-7-777-7-777-7-777-7-7777-10------|
|-------------------------------------------------------------|
[ Tab from: http://www.guitaretab.com/t/the-sword/112094.html ]
|----------------------------------------------------------------|
|----------------------------------------------------------------|
|----------------------------------------------------------------|
|7-----7------7-----7-----7-10-9----9------9-----9-----10--10----|
|5-555-5-555-5-555-5-555-5-8-7-777-7-777-7-777-7-777-8-7-8-------|
|----------------------------------------------------------------|

Chorus
|-----------------------------------------------------------------------------|
|-----------------------------------------------------------------------------|
|-----------------------------------------------------------------------------|
|9------10-------7------10-9-10-------------------------10--------------------|
|7-------8-------5-------8-7--8-7----7-----7------5-7-8-----------------------|
|--00-0---00-0---00-0------------0-0--0-0---0-0-------------------------------| x4

Intro A x1
Intro B x1


Verse 2
|-----------------------------------------------------------------------------|
|-----------------------------------------------------------------------------|
|-----------------------------------------------------------------------------|
|9-----7--9----12-9----14-12-------16-----------------------------------------|
|7-----5-7-----10-7----12-10-------14-----------------------------------------|
|-----------------------------------------------------------------------------|

|--------------------------------------------------------------|
|--------------------------------------------------------------|
|--------------------------------------------------------------|
|9-----9------9-----9-----9-7-9-----9------9-----9-------12----|
|7-777-7-777-7-777-7-777-7-5-7-777-7-777-7-777-7-7777-10-------|
|--------------------------------------------------------------|

|---------------------------------------------------------------|
|---------------------------------------------------------------|
|---------------------------------------------------------------|
|7-----7------7-----7-----7-10-9----9------9-----9-----10--10---|
|5-555-5-555-5-555-5-555-5-8-7-777-7-777-7-777-7-777-8-7-8------|
|---------------------------------------------------------------|
Chorus x4

Bridge (play this through the solo)
|-----------------------------------------------------------------------------|
|-----------------------------------------------------------------------------|
|-----------------------------------------------------------------------------|
|-----------------------------------------------------------------------------|
|--5-7-8-7-5-7-1--------------------------------------------------------------|
|0-------------------5-7-8-7-5-7-0--------------------------------------------|

I havenít quite learned how to play the solo but Iím working on it

Then its just the intro slightly modified x4
And there you have it.
Related for Fire Lances Of The Anciet Hyperzephryians tab