Song name
# A B C D E F G H I J K L M N O P Q R S T U V W X Y Z

The Sword - To Take The Black tab

Help us improve GuitareTab! Take a short survey!
                         To Take The Black

Tabbed by: Stephen Earnest
Email: stevmen1236@gmail.com

Tuning: C Tuning 

Intro
|-------------------------------------------|
|-------------------------------------------|
|-6--7-6-4-6-7-6-4-6--4--7-6-4-6-7-6--------|
|------------------------------------7-6-4-2|x2
|4-------------------2----------------------|
|-------------------------------------------|

|-------------------------------------------|
|-------------------------------------------|
|-6-7-6-4-6-7-6-4------4-7-6-4-6-7-6--------|
|-----------------6-7----------------7-6-4-2|x2
|4--------------------2---------------------|
|-------------------------------------------|

Pre-verse Riff 1 (third time leave out mutes)
|-------------------------------------------------------------|
|-------------------------------------------------------------|
|-------------------------------------------------------------|
|666666-6\4-4-6\4-66666-4-4h6-4-4h6-4-66666--6\4-4-6\4-------4|x3
|444444-4\2-2-4\2-44444---------------444444-4\2-2-4\2-5-2h4-2|
|------------------------------------------------------3------|
 ******           *****               ******

Pre-verse Riff 2
|--------------------------------------------------------------|
|--------------------------------------------------------------|
|--------------------------------------------------------------|
|666666-6/7-4-666666-6/7-4-999999-9/11-4-11111111111111-11/13-4|x2
|444444-4/5-2-444444-4/5-2-777777-7/9--2--9-9-9-9-9-9----9/11-2|
|--------------------------------------------------------------|
  ** **        ** **        ** **           * *   * *

Verse 1
|------------------------------------------------------------------------|
|----5h7-5--------------5h7-5-------------5h7-5-5b-----------5h7-5-7-----|
|----------66-----------------66-----------------------------------------|
|66-----------4-6-7--66----------11-9--66----------4-6-7--66---------11-9|x2
|44-----------2-4-5--44-----------9-7--44----------2-4-5--44----------9-7|
|------------------------------------------------------------------------|

Chorus
|---------------------------------------------------|
|---------------------------------------------------|
|---------------------------------------------------|
|6---6-4-4/6-6-4--999999-9/11-4-111111111111-11/13-4|x2
|4---4-2-2/4-4-2--777777-7/9--2--9-9-9-9-9-9--9/11-2|
|---------------------------------------------------|
                   ** **           * *   * *

Guitsr Break Riff 1
|---------------------------------------------------|
|---------------------------------------------------|
|---------------------------------------------------|
|---------------------------------------------------|
|444444-4/5-2-444444-4/5-2-444444-4/5-2-444444-4/5-2|
|---------------------------------------------------|
  ** **        ** **        ** **        ** **

Guitar Break Riff 2
|-----------------------------------------------------------------|
|-----------------------------------------------------------------|
|--------------7-6-4-6-7-6-4-6-----------------7-6-4-6-7-6--------|
|6-6-7-6-6-7-6-----------------6-6-7-6-6-6-7-6-------------7-6-4-2|x2
|4-4-5-4-4-5-4-----------------4-4-5-4-4-4-5-4--------------------|
|-----------------------------------------------------------------|

Verse 2
Chorus
Pre-verse Riff 2
Pre-verse Riff 1 (acoustic first two times, electric second two times)

Bridge 
|-------------------------------|
|-------------------------------|
|-------------------------------|
|6-6-7-6-6-6-7-6-6-6-7-6-6-6-7-6|x4
|4-4-5-4-4-4-5-4-4-4-5-4-4-4-5-4|
|-------------------------------|

Intro (distorted)
Pre-verse Riff 2


| /  slide up
| \  slide down
| h  hammer-on
| p  pull-off
| ~  vibrato
| +  harmonic
| *  Mute note
Related for To Take The Black tab