Song name
# A B C D E F G H I J K L M N O P Q R S T U V W X Y Z

The Sword - March Of The Lor tab

                        March of the Lor

                   Tabbed by: Stephen Earnest

This song is awesome. Band is great

Drop C Tuning

Intro
|----------------------------|
|----------------------------|
|----------------------------|
|777777777777-555555555555---|
|555555555555-333333333333---| (x3)
|----------------------------|
 ************ ************

|----------------------------|
|----------------------------|
|----------------------------|
|777777777777-555555-888888--|
|555555555555-333333-666666--|
|----------------------------|
 ************ ****** ******

Riff 1
|----------------------------|
|----------------------------|
|----------------------------|
|----------------------------|
|5-3-5-6-5-3---3-------------| (x4)
|------------6---6-5-3-5-----|

Riff 2
|----------------------------------|
|----------------------------------|
|----------------------------------|
|-----7-88-7---7-5-----------------|
|-----5-66-5---5-3--8--------------|
|0-000-00-0-000-0-0-6-333333666666-| (x3)
   *** ** * *** * *

|---------------------------------------|
|---------------------------------------|
|---------------------------------------|
|---------------------------------------|
|-----5--66-5--666666333333-------------|
|0-000-00--0-00------------666666333333-|
   *** **  * **

Riff 3
|----------------------------|
|----15-15-15-15-15-15-------|
|----------------------------|
|----------------------------|
|----------------------------| (x2)
|0-0-------------------------|

|----15-15-15-15-15-15-------|
|----------------------------|
|----------------------------|
|----------------------------|
|----------------------------|
|0-0-------------------------|

|----17-17-17-17-17-17-------|
|----------------------------|
|----------------------------|
|----------------------------|
|----------------------------|
|0-0-------------------------|

Riff 4
|--------------------------------------|
|--------------------------------------|
|--------------------------------------|
|----------------5-3-------------------|
|----3-5-6-5---------6-5---------------| (x2)
|0-3-----------------------5-3-6--000--|
                                  ***

Riff 5
|------------------------------------|
|------------------------------------|
|------------------------------------|
|------------------------77-8-10-8-5-|
|5---5---5---5---5---5---55-6--8-6-3-|
|-000-000-000-000-000-000------------|
  *** *** *** *** *** ***

|-------------------------------------|
|-------------------------------------|
|-------------------------------------|
|-------------------------------------|
|5---5---5---5---5---5------5---------|
|-000-000-000-000-000-000-6---6-5-3-5-|
  *** *** *** *** *** *** *

|---------------------------------------|
|---------------------------------------|
|---------------------------------------|
|------------------------12-10-8-10-8-5-|
|5---5---5---5---5---5---10--8-6--8-6-3-|
|-000-000-000-000-000-000---------------|
  *** *** *** *** *** ***

|-------------------------------------|
|-------------------------------------|
|-------------------------------------|
|-------------------------------------|
|5---5---5---5---5---5------5---------|
|-000-000-000-000-000-000-6---6-5-3-5-|
  *** *** *** *** *** *** *

Riff 6
|-----------------------------------------------------|
|-----------------------------------------------------|
|-----------------------------------------------------|
|0-----6------0-----6--------7-----7-5------7-----7-5-|
|0-----6------0-----6--------5-----5-3------5-----5-3-|
|0-----6------0-----6---------------------------------|

Riff 1 (x4)

Riff 7
|--------------------------------|
|--------------------------------|
|--------------------------------|
|--------------------------------|
|------55-3-6-5-3-------55---3-5-| (x4)
|000-0------------000-0----6-----|


|------|
|------|
|------|
|7-5-3-|
|5-3-1-|
|------|

Riff 8
|---------------------|
|---------------------|
|---------------------|
|---------------------|
|-------------1h3p1---| (x4)
|5h6o5-0------------0-|

Riff 9
|-----------------------------------|
|-----------------------------------|
|-----------------------------------|
|---------------5-------------------|
|5-5---------5--3--5-5---------5--3-| (x4)
|5-5-0-4h5h6-5-----5-5-0-4h5h6-5--3-|


|-----------------------------------|
|-----------------------------------|
|----------777777-------------------|
|--7-88-7--------666666555555666666-|
|--5-66-5---------------------------|
|0----------------------------------|

Riff 2
Riff 3


|------------|
|------------|
|------------|
|7-5-3-------|
|5-3-1-------|
|------5h6p5-|


|--------------------------------------|
|--------------------------------------|
|--------------------------------------|
|----------------5-3-------------------|
|----3-5-6-5---------6-5-------3-------|
|0-3-----------------------6-5---6-----|

Riff 10
|---------------------------------------------------------------------|
|---------------------------------------------------------------------|
|---------------------------------------------------------------------|
|---------------------------------------------------------------------|
|5---5---5---5---5---5---5---5---5---5---5---5---5---5------3---------|
|-000-000-000-000-000-000-000-000-000-000-000-000-000-000-6---6-5-3-5-|
  *** *** *** *** *** *** *** *** *** *** *** *** *** *** *
Tap to rate this tab
# A B C D E F G H I J K L M N O P Q R S T U V W X Y Z