Song name
# A B C D E F G H I J K L M N O P Q R S T U V W X Y Z

The Sword - The White Sea tab

Help us improve GuitareTab! Take a short survey!
The White Sea
by 
The Sword

This isn't 100% correct but its pretty correct. I didn't put the parts in order 
but you'll get it. I didn't get all of the solo's so if you have any ideas on how 
they go email me at either steveman1236@gmail.com or thehats440@gmail.com. Thanks.

| Intro |

Guitar 1

|---------------------------------------------|
|---------------------------------------------|
|7-7---7-----7-----7---7-7---7-----7-----7----|
|8p7---7-----7-----7---8p7---7-----7-----7----|
|5-5-5-5-5-5-5-5-5-5-5-5-5-5-5-5-5-5-5-5-5-5--|
|---------------------------------------------|

|--------------------------------------------------------|
|6-6---6-----6-------6-------6-6---6-----6-------6-------|
|5-5---5-----5h7p5---5h7p5---5-5---5-----5h7p5---5h75----|
|3-3-3-3-3-3-3-----3-3-----3-3-3-3-3-3-3-3-----5-3----3--|
|--------------------------------------------------------|
|--------------------------------------------------------|

Guitar 2

Clean Solo

|-8-8h10----8-8---------------------8/10-8------------------------|
|---------------11-10---11-10-8--6----------11p10h11-8-10/11------|
|-----------------------------------------------------------------|
|-----------------------------------------------------------------|
|-----------------------------------------------------------------|
|-----------------------------------------------------------------|

|8-10-11-8h10p8-8-8h10p8-8-8h10p8-8-8h10p8-----|
|----------------------------------------------|
|----------------------------------------------|
|----------------------------------------------|
|----------------------------------------------|
|----------------------------------------------|

Distorted Solo (w/ phaser)

|13p10-13-13p10-13-13p10-13-13p10-13-13p10-13-13p10-13-13p10-13-13p10---|
|-----------------------------------------------------------------------|
|-----------------------------------------------------------------------|
|-----------------------------------------------------------------------|
|-----------------------------------------------------------------------|
|-----------------------------------------------------------------------|

|8-8h10-8--------------------------------8-------8-----------------|
|---------11-10-8-6/8-8/10-8-8p6----8h10-----8/10--10p8-6-8-6h8-6--|
|-------------------------------7----------------------------------|
|------------------------------------------------------------------|
|------------------------------------------------------------------|
|------------------------------------------------------------------|

|------------15-17-15---|
|13-15-17-18------------|
|-----------------------|
|-----------------------|
|-----------------------|
|-----------------------|

Lead Fill

|--------------------------------------------------------------|
|--------------------------------------------------------------|
|----7-------7/8-5-5/8-5---5/8-5-5/8-7-7h8p7----7/8-5-5/8-5-5---|
|--------------------------------------------------------------|
|-5------------------------------------------------------------|
|--------------------------------------------------------------|

|---------------|
|---------------|
|---------------|
|8--7--10-------|
|8--7--10-------|
|8--7--10-------|


| Riff A | 
Distorted

|-------------------------------------------------|
|-------------------------------------------------|
|-------------------------------------------------|
|------------5-7-7---8-7-----------7---8---10-----|
|------------3/5-5---6\5-----------5---6----8-----|
|0-000-0-0-0-------0-----000-0-0-0---0---0--------|
      
|----------------------------------------|
|----------------------------------------|
|----------------------------------------|
|7----7----5-7-7-8-777-888-101010-10/12--|
|5----5----3/5-5/6-----------------------|
|--00---00-------------------------------|

|-------------------------------------------------|
|-------------------------------------------------|
|-------------------------------------------------|
|------------5-7-7---8-7-----------12---10---8-7--|
|------------3/5-5---6\5-----------10----8---6\5---|
|0-000-0-0-0-------0-----000-0-0-0----0----0------|

|--------------------------------|
|--------------------------------|
|--------------------------------|
|7----7----5-7-------------------|
|5----5----3/5-------------666---|
|--00---00-----333-888-777-------|

| Riff B |

|--------------------------------------------------------------------------|
|--------------------------------------------------------------------------|
|--------------------------------------------------------------------------|
|------7--7-----7-5-3----3--3-----3-7-5----5--5-----5-8-7----7--7-----7-5--|
|------5--5-----5-3-1----1--1-----1-5-3----3--3-----3-6-5----5--5-----5-3--|
|0-0-0------000-------00------000-------00------000-------00------000------|

Riff B Lead

|--------------------------------------------------------|
|------------------------------------------------8h10-8--|
|7--7-9-12-10--10-12-14-12--12-10-12-14-----7h10---------|
|--------------------------------------------------------|
|5--5/7-10--8---8/10-12-10--10\-8-10/12------------------|
|--------------------------------------------------------|


| Riff C |

|--------------------------------------------------------------------------|
|--------------------------------------------------------------------------|
|--------------------------------------------------------------------------|
|--7---7---7---7---5---3---3---3---3---7---5---5---5---5---8---7---7---7--5|
|5---5---5---5---5---1---1---1---1---1---3---3---3---3---3---5---5---5----3|
|--------------------------------------------------------------------------|

| Riff D |

|--------------------------------------------------------------------------|
|--------------------------------------------------------------------------|
|7-----------5------7-------5----10-10-10-9-7--------5----7------5---------|
|7-----------5------7-------5----10-10-10-9-7--------5----7------5---7-7-7-|
|5-----------3------5-------3-----8--8--8-7-5--------3----5------3---7-7-7-|
|--------------------------------------------------------------------7-7-7-|

| Riff E |

|------------------------------------------------------------|
|------------------------------------------------------------|
|------------------------------------------------------------|
|5-5-55555-888-7-7-77777-333-5-5-55555-888-7-7-77888-101010--|
|5-5-55555-888-7-7-77777-333-5-5-55555-888-7-7-77888-101010--|
|5-5-55555-888-7-7-77777-333-5-5-55555-888-7-7-77888-101010--|

|--------------------------------------------------|
|--------------------------------------------------|
|--------------------------------------------------|
|5-5-55555-888-7-7-77777-333-5-5-55555-888-7-5-3-2-|
|5-5-55555-888-7-7-77777-333-5-5-55555-888-7-5-3-2-|
|5-5-55555-888-7-7-77777-333-5-5-55555-888-7-5-3-2-|

| Riff Fa |
Clean

|--------------------------------------------|
|--------------------------------------------|
|--------------------------------------------|
|--------------------------------------------|
|--------------------------------------------|
|0--------------0------------0-------------0-|

|Riff Fb |
Distorted

|-------------------------|
|-------------------------|
|7----5-7----5-7----5-7---|
|7----5-7----5-7----5-7---|
|5----3-5----3-5----3-5---|
|-------------------------|

|-----------------------------------------------------|
|-----------------------------------------------------|
|5-7-8---8---8--7-5-7-5---5--5--8-5-8-7--7---8-5-8-7--|
|5-7-8---8---8--7-5-7-5---5--5--8-5-8-7--7---8-5-8-7--|
|3-5-6---6---6--5-3-5-3---3--3--6-3-6-5--5---6-3-6-5--|
|------------------------------------------0----------|

| Riff G |

|--------------------------------------------------------------------------|
|--------------------------------------------------------------------------|
|--------------------------------------------------------------------------|
|--------------------------------------------------------------------------|
|---5--3h5-3--3-5-6----5--3h-3--3-5-6----5-3h5-3--3-5-6---5--3h5-3---3-----|
|0------------------0-----------------0-----------------0----------5---5p3-|

Riff G Harmonize
|-------------------------------------------------------------------------|
|-------------------------------------------------------------------------|
|-------------------------------------------------------------------------|
|--7--5h7-5--5-7-8---7--5h7-5--5-7-8---7--5h7-5--5-7-8---7-5h7-5----------|
|------------------------------------------------------------------3------|
|0-----------------0-----------------0-----------------0---------5---5p3--|

| Riff H |

|-------------------------------------------------------------------------|
|-------------------------------------------------------------------------|
|7-7-----7-7-----7-7-----5-5-------7-7-----7-7-----5-5-------10-10-10-7-5-|
|7-7-----7-7-----7-7-----5-5-------7-7-----7-7-----5-5-------10-10-10-7-5-|
|5-5-0-1-5-5-0-1-5-5-0-1-3-3-3-1-0-5-5-0-1-5-5-0-1-3-3-3-1-0--8--8--8\5-3-|
|-------------------------------------------------------------------------|

| Riff I |

|-------------------------------------------|
|-------------------------------------------|
|7-7------------------5-5-------------------|
|7-7------7-----3-----5-5------5-----8-7-5--|
|5-5--1-3-5-555---5-3-3-3--0-1-3-333-6-5-3--|
|-------------------------------------------|

| Riff J |

|--------------------|
|--------------------|
|-------------5-7-8--|
|0--------0---5-7-8--|
|0--------0---3-5-6--|
|0--------0----------|

And that's it.






Related for The White Sea tab