Guitaretab - guitar tabs
Song name
# A B C D E F G H I J K L M N O P Q R S T U V W X Y Z

The Sword - To Take The Black Acoustic tab

-------------------------------------------------------------------------------
To Take The Black (Acoustic)  The Sword
-------------------------------------------------------------------------------

This song is on the album Gods of the Earth, and its marked as the untitled hidden track 
is the last song. Its an awesome song to jam to since the chorus keeps repeating. ENJOY!

Intro: (2x)
e|------------------------------------|
B|------------------------------------|
G|------------------------------------|
D|------7----------------5------------|
A|------------------------------------|
E|--7---------------5-----------------|

Verse:
e|-----------------------------------------------------------------|
B|-----------------------------------------------------------------|
G|-----------------------------------------------------------------|
D|------7---8-7----7---8-7----7-------5---8-7----7-8-7-------------|
A|--------------10---------10-----------------10-------10-8-7------| (2x)
E|--7-----------------------------5---------------------------10---|

e|---------------------------------------------------------------------|
B|---------------------------------------------------------------------|
G|---------------------------------------------------------------------|
D|------7---8-7----7---8-7------------5--8-7----7--8--7----------------|
A|--------------10---------10-7--8-----------10----------10--8--7------| (2x)
E|--7------------------------------5-------------------------------10--|


Solo: (gtr.1)
e|------------------------------------------------------|
B|------------------------------------------------------|
G|-----------------------------------12-----------------|
D|---------10-12-10--12-10-10h12-12--------------10-12--|
A|------12------------------------------------12--------|
E|------------------------------------------------------|
[ Tab from: http://www.guitaretab.com/t/the-sword/186828.html ]
Rhythm: (gtr.2)
e|------------------------------------------------------|
B|------------------------------------------------------|
G|------------------------------------------------------|
D|------7----------------------------5------------------|
A|------------------------------------------------------|
E|--7----------------------------5-----5-7-5------------|

(gtr.1)
e|-----------------------------------------------|
B|-----------------------------------------------|
G|--------12----9h10-9-9\12-12--10-9-9h10-9--7---|
D|--12b14----12----------------------------------|
A|-----------------------------------------------|
E|-----------------------------------------------|

(gtr.2)
e|----------------------------------------------|
B|----------------------------------------------|
G|----------------------------------------------|
D|--------7---------------------5---------------|
A|----------------------------------------------|
E|--7-----------------------5-------------------|

Chorus: (10x)
e|------------------------------------------------------------------------|
B|------------------------------------------------------------------------|
G|------------------------------------------------------------------------|
D|--7-7-5-5h7p5---5-----7-7-10-10h12p10----10-------7-7-5-5h7p5---5-------|
A|--7-7---------7--h7-5-7-7-------------12---h12-10-7-7---------7--h7-5---|
E|--7-7-----------------7-7-------------------------7-7-------------------|

e|-----------------------------|
B|-----------------------------|
G|-----------------------------|
D|--10-10h12\14-12--10h12\14---|
A|--10-10h12\14-12--10h12\14---|
E|--10-10h12\14-12--10h12\14---|

Outro:
e|--12--12------12--12------12--12-----|
B|--13--13------13--13------13--13-----|
G|--14--14------14--14------14--14-----|
D|-------------------------------------|
A|-------------------------------------|
E|-------------------------------------|


| /  slide up
| \  slide down
| h  hammer-on
| p  pull-off
| ~  vibrato
| +  harmonic
| x  Mute note
===============================================================================
Related for To Take The Black Acoustic tab