Song name
# A B C D E F G H I J K L M N O P Q R S T U V W X Y Z

The Sword - The Black River tab

This is for the riff about 1:05 in the song. It's not 100% but since nobody else 
tabbed it I will give you what I got.

-------------------------------------------------------------------------------
	                        The Black River - The Sword
-------------------------------------------------------------------------------

Tabbed by: Lance Myhre

Tuning: Drop D

e|---------------------------------------------------------------------------|
B|---------------------------------------------------------------------------|
G|---------------------------------------------------------------------------|
D|---------------------------------------------------------5/7-7/8\7---------|
A|-10----10--5h6---8------6---5---3-----3---3h5----1-------3/5-5/6\5---------|
E|-10----10--------8------6---5---3-----3---3h5----1-------------------------|
         .                .   .         .

e|---------------------------------------------------------------------------|
B|---------------------------------------------------------------------------|
G|---------------------------------------------------------------------------|
D|-------------------------7---8---8/10-----10---10\8---7-----5/7-7/8\7------|
A|-10----10--5h6---8-------5---6---6/8-------8----8\6---5-----3/5-5/6\5------|
E|-10----10--------8---------------------------------------------------------|
         .                 .   .            .

e|---------------------------------------------------------------------------|
B|---------------------------------------------------------------------------|
G|---------------------------------------------------------------------------|
D|---------------------------------------------------------5/7-7/8\7---------|
A|-10----10--5h6---8------6---5---3-----3---3h5----1-------3/5-5/6\5---------|
E|-10----10--------8------6---5---3-----3---3h5----1-------------------------|
         .                .   .         .

e|---------------------------------------------------------------------------|
B|---------------------------------------------------------------------------|
G|---------------------------------------------------------------------------|
D|---------------------------------------------------------------------------|
A|-10----10--6p5---8------6---5---3/5----0-----------------------------------|
E|-10----10--------8------6---5---3/5----0-----------------------------------|
         .


| /  slide up
| \  slide down
| h  hammer-on
| p  pull-off
| .  Palm mute
===============================================================================
Tap to rate this tab
 
# A B C D E F G H I J K L M N O P Q R S T U V W X Y Z