Song name
# A B C D E F G H I J K L M N O P Q R S T U V W X Y Z

The Sword - Iron Swan tab

                                 The Sword - Iron Swan (SOLO)

Tab By: chaps! .:[MsN]:. -> miltonbmxer@hotmail.com

| b = Bend
| / = Slide Down
| \ = Slide Up
| ~ = Vibrato

E----------------------------------------------------|
B----------------------------------------------------|
G--------12-14-12----12-14-12----12-14-12-11---------|
D--12-14----------14----------14-------------12------|
A----------------------------------------------------|
E----------------------------------------------------|

E----------------------------------------------------|
B----------------------15-13-12-15-13-12-15-15-------|
G--------12-14b--12-14-------------------------------|
D--12-14---------------------------------------------|
A----------------------------------------------------|
E----------------------------------------------------|

E--12--15-12------------------------------------------|
B------------15--12/15-17\12b--12----12---------------|
G---------------------------------14----14b-12----12~-|
D----------------------------------------------14-----|
A-----------------------------------------------------|
E-----------------------------------------------------|

E--------------------------------------15-17\--------|
B------------------------12-15-12-15b----------------|
G------------12-14-12-14-----------------------------|
D--14-12-14------------------------------------------|
A----------------------------------------------------|
E----------------------------------------------------|

  Rapid! Rapid! Rapid!

E--15-12-------15-12-------15-12-------15-12---------|
B--------15-12-------15-12-------15-12-------15-12---|
G----------------------------------------------------|
D----------------------------------------------------|
A----------------------------------------------------|
E----------------------------------------------------|

 Rapid! Rapid! Rapid!

E--15-12-------15-12-------15-12-------15-12---------|
B--------15-12-------15-12-------15-12-------15-12---|
G----------------------------------------------------|
D----------------------------------------------------|
A----------------------------------------------------|
E----------------------------------------------------|

 Rapid! Rapid! Rapid!

E----------------------------------------------------|
B--15-12-------15-12-------15-12-------15-12---------|
G--------14-12-------14-12-------14-12-------14-12---|
D----------------------------------------------------|
A----------------------------------------------------|
E----------------------------------------------------|

E----------------------------------------------------|
B----------------------------12-13-15-13-12----------|
G--------12-14-14b-12-14b-------------------14-------|
D--12-14---------------------------------------------|
A----------------------------------------------------|
E----------------------------------------------------|

E----------------------------------------------------------|
B--12--------------------------------------------------15--|b
G-----14-12-11-12-11---------------12----14-12-14b--12-----|
D--------------------12---12/14-14----14-------------------|
A----------------------------------------------------------|
E----------------------------------------------------------|
Tap to rate this tab
 
# A B C D E F G H I J K L M N O P Q R S T U V W X Y Z