Song name
# A B C D E F G H I J K L M N O P Q R S T U V W X Y Z

The Sword - The Black River tab

This song is C Standard but I play it in C so this is my version:


D|-------------------------------------|
A|-------------------------------------|
F|-------------------------------------|
C|12---------10--87-5--5-57-3----------|
G|12----7h8--10--87-5--5-57-3----------|
C|12-x- -----10--87-5--5-57-3--2320----|
                 PP    P

D|---------------------------------------------------|
A|---------------------------------------------------|
F|-----------------------12\--10-12\1010--5\7-10-7---|
C|--12---------10--1012--10\--8--10\8-8---3\5-8--5---|
G[--12----7h8--10--1012------------------------------|
c|--12-x- -----10--1012------------------------------|
                   P P

D|-------------------------------------|
A|-------------------------------------|
F|-------------12----------------------|
C|--12---------10--87-5--5-57-3--------|
G|--12----7h8--10--87-5--5-57-3--------|
C|--12-x- -----10--87-5--5-57-3--2320--|
                   PP    P

D|-------------------------------------|
A|-------------------------------------|
F|-------------------------------------|
C|--12---------10------------0---------|
G|--12----8h7--10--8-7--5h7--0---------|
C|--12-x- -----10------------0---------|

And this is the riff that come next:

D|-------------------------------------|
A|-------------------------------------|
F|-------------------------------------|
C|--8\7--------------------------------|
G|--6\5--------------------------------|
C|-------0-0-0-0-000-0-0-0-0-0-000-----|
          *0 are randoms PMs*
Tap to rate this tab
 
# A B C D E F G H I J K L M N O P Q R S T U V W X Y Z