Song name
# A B C D E F G H I J K L M N O P Q R S T U V W X Y Z

The Sword - The Black River tab

                                          The Black River                                           


                                                                                   The Sword
Track 1



                            PM  PMPM                                  
      E.  S  S   S Q.     S S   S S     E.  S S  S E.  S S  S S  E.   
C ||---------------------------------|-------------------------------|
G ||---------------------------------|-------------------------------|
D#||---------------------------------|-------------------------------|
A#||--9---9-11s-12-7------L----------|-------------------------------|
F ||--7---7--9s-10-5------L-x--10-9--|--7----------------------------|
C ||------------------------0---8-7--|--5---5-5h-7-3---0-2h-3-2p-0---|


                        PM  PM PM                                     
  E.  S  S   S Q.     S S   S  S     E.   S  S   S  E.  S S  S S E.   
---------------------------------|-----------------------------------|
---------------------------------|-----------------------------------|
---------------------------------|-----------------------------------|
--9---9-11s-12-7------L-x--11-12-|--14---14-14s-12-12----------5-----|
--7---7--9s-10-5------L-7---9-10-|--12---12-12s-10-10-----5h-7---7---|
---------------------------------|----------------------0------------|


  E.  S  S   S Q.     S S  S S    E.  S S  S E.  S  S  S S  S  S  S    E.  S  S   S H        E   
-------------------------------|------------------------------------|---------------------------|
-------------------------------|------------------------------------|---------------------------|
-------------------------------|------------------------------------|---------------------------|
--9---9-11s-12-7------L--------|------------------------------------|--9---9-11s-12-7--------L--|
--7---7--9s-10-5------L-x-10-9-|--7---------------------------------|--7---7--9s-10-5--------L--|
------------------------0--8-7-|--5---5-5h-7-3---0h-5p-3-2h-3p-2p-0-|---------------------------|


    E  E  S  S E  H            S S S S T T T T S S S T T S S S S  S S  
---------------------------|------------------------------------------|
---------------------------|------------------------------------------|
---------------------------|------------------------------------------|
---------------------------|--10-9-------------------------------10---|
--2g3--2-------------------|---8-7--------------------------------8---|
----------3h-5-0--L--------|-------0-0-0-0-0-0-0-0-0-0-0-0-0-0-0------|


   S S S S T T S S T T S T T S S S S  S S     S S S S T T T T S S S T T S S S S  S S  
------------------------------------------|------------------------------------------|
------------------------------------------|------------------------------------------|
------------------------------------------|------------------------------------------|
--10-9-------------------------------10---|--10-9-------------------------------10---|
---8-7--------------------------------8---|---8-7--------------------------------8---|
-------0-0-0-0-0-0-0-0-0-0-0-0-0-0-0------|-------0-0-0-0-0-0-0-0-0-0-0-0-0-0-0------|


   S S S S T T S S T T S T T S S S S  S S    E  E  E   E   
------------------------------------------|---------------|
------------------------------------------|---------------|
------------------------------------------|---------------|
--10-9-------------------------------10---|-----------10--|
---8-7--------------------------------8---|------------8--|
-------0-0-0-0-0-0-0-0-0-0-0-0-0-0-0------|---------------|


   S S S S T T T T S S S T T S S S S  S S     S S S S T T S S T T S T T S S S S  S S  
------------------------------------------|------------------------------------------|
------------------------------------------|------------------------------------------|
------------------------------------------|------------------------------------------|
--10-9-------------------------------10---|--10-9-------------------------------10---|
---8-7--------------------------------8---|---8-7--------------------------------8---|
-------0-0-0-0-0-0-0-0-0-0-0-0-0-0-0------|-------0-0-0-0-0-0-0-0-0-0-0-0-0-0-0------|


   S S S S T T T T S S S T T S S S S  S S     S S S S T T S S T T S T T S S S S  S S  
------------------------------------------|------------------------------------------|
------------------------------------------|------------------------------------------|
------------------------------------------|------------------------------------------|
--10-9-------------------------------10---|--10-9-------------------------------10---|
---8-7--------------------------------8---|---8-7--------------------------------8---|
-------0-0-0-0-0-0-0-0-0-0-0-0-0-0-0------|-------0-0-0-0-0-0-0-0-0-0-0-0-0-0-0------|


  S E.  Q    S S S E.  E     S E.  Q    S S S E.  E     S E.  Q    S S S E.  E   
--------------------------|--------------------------|--------------------------|
--------------------------|--------------------------|--------------------------|
--------------------------|--------------------------|--------------------------|
--------------------------|--------------------------|--------------------------|
--5-7--------5-7-8-7---5--|--5-7--------5-7-8-7---5--|--5-8--------5-7-8-7---5--|
--------0-----------------|--------0-----------------|--------0-----------------|


  S E.  Q    S S S E  S E     S E.  Q    T T S T T S T T S T T S  
---------------------------|-------------------------------------|
---------------------------|-------------------------------------|
---------------------------|-------------------------------------|
-------------7-5--------5--|--7-9--------------------------------|
--5-8------------8-7--8----|--5-7--------------------------------|
--------0------------------|--------0----0-0-0-0-0-0-0-0-0-0-0-0-|


  S  E.  Q    T T S T T S T T S T T S    S E.  Q    T T S T T S T T S E   
--------------------------------------|----------------------------------|
--------------------------------------|----------------------------------|
--------------------------------------|----------------------------------|
--7-10--------------------------------|--9-7--------------------------7--|
--5--8--------------------------------|--7-5--------------------------5--|
---------1----1-1-1-1-1-1-1-1-1-1-1-1-|--------3----3-3-3-3-3-3-3-3-3----|


   S E.  Q     S S S E  S E      S S S S T T T T S S S T T S S S S S S  
-----------------------------|-----------------------------------------|
-----------------------------|-----------------------------------------|
-----------------------------|-----------------------------------------|
--10-9-----------------------|--10-9-------------------------------7---|
---8-7--------10-8-7-5--7-8--|---8-7-------------------------------5---|
---------0-------------------|-------0-0-0-0-0-0-0-0-0-0-0-0-0-0-0-----|


   S S S S T T T T S S S T T S S S S S S     S S S S T T T T S S S T T S S S S S S  
-----------------------------------------|-----------------------------------------|
-----------------------------------------|-----------------------------------------|
-----------------------------------------|-----------------------------------------|
--10-9-------------------------------7---|--10-9-------------------------------7---|
---8-7-------------------------------5---|---8-7-------------------------------5---|
-------0-0-0-0-0-0-0-0-0-0-0-0-0-0-0-----|-------0-0-0-0-0-0-0-0-0-0-0-0-0-0-0-----|


   S S S S T T T T S S S T T S S S S S S     S S S S T T T T S S S T T S S S S S S  
-----------------------------------------|-----------------------------------------|
-----------------------------------------|-----------------------------------------|
-----------------------------------------|-----------------------------------------|
--10-9-------------------------------7---|--10-9-------------------------------7---|
---8-7-------------------------------5---|---8-7-------------------------------5---|
-------0-0-0-0-0-0-0-0-0-0-0-0-0-0-0-----|-------0-0-0-0-0-0-0-0-0-0-0-0-0-0-0-----|


   S S S S T T T T S S S T T S S S S S S     S S S S T T T T S S S T T S S S S S S  
-----------------------------------------|-----------------------------------------|
-----------------------------------------|-----------------------------------------|
-----------------------------------------|-----------------------------------------|
--10-9-------------------------------7---|--10-9-------------------------------7---|
---8-7-------------------------------5---|---8-7-------------------------------5---|
-------0-0-0-0-0-0-0-0-0-0-0-0-0-0-0-----|-------0-0-0-0-0-0-0-0-0-0-0-0-0-0-0-----|


   S S S S T T T T S S S T T S S S S S S    S E.  Q    S S S E.  E     S E.  Q    S S S E.  E   
-----------------------------------------|--------------------------|--------------------------|
-----------------------------------------|--------------------------|--------------------------|
-----------------------------------------|--------------------------|--------------------------|
--10-9-------------------------------7---|--------------------------|--------------------------|
---8-7-------------------------------5---|--5-7--------5-7-8-7---5--|--5-7--------5-7-8-7---5--|
-------0-0-0-0-0-0-0-0-0-0-0-0-0-0-0-----|--------0-----------------|--------0-----------------|


  S E.  Q    S S S E.  E     S E.  Q    S S S E  S E     S E.  Q    T T S T T S T T S T T S  
--------------------------|---------------------------|-------------------------------------|
--------------------------|---------------------------|-------------------------------------|
--------------------------|---------------------------|-------------------------------------|
--------------------------|-------------7-5--------5--|--7-9--------------------------------|
--5-8--------5-7-8-7---5--|--5-8------------8-7--8----|--5-7--------------------------------|
--------0-----------------|--------0------------------|--------0----0-0-0-0-0-0-0-0-0-0-0-0-|


  S  E.  Q    T T S T T S T T S T T S    S E.  Q    T T S T T S T T S E   
--------------------------------------|----------------------------------|
--------------------------------------|----------------------------------|
--------------------------------------|----------------------------------|
--7-10--------------------------------|--9-7--------------------------7--|
--5--8--------------------------------|--7-5--------------------------5--|
---------1----1-1-1-1-1-1-1-1-1-1-1-1-|--------3----3-3-3-3-3-3-3-3-3----|


   S E.  Q     S S S E  S E     E  E  Q    H           E   E   Q    H         
-----------------------------|----------------------|------------------------|
-----------------------------|----------------------|------------------------|
-----------------------------|----------------------|------------------------|
--10-9-----------------------|--7--9--9-------------|--7--10--10-------------|
---8-7--------10-8-7-5--7-8--|--5--7--7-------------|--5---8---8-------------|
---------0-------------------|-------------0--------|---------------1--------|


  E   E  Q    Q.     E      E  E  Q    H           S E  S S E  S S E  S S S   E   
------------------------|-----------------------|--------------------------------|
------------------------|-----------------------|--------------------------------|
------------------------|-----------------------|--------------------------------|
--7--10--7-----------7--|--10--9--9-------------|--9-9--x-9-9--x-9-9--x-7-7S-10--|
--5---8--5-----------5--|---8--7--7-------------|--7-7--7-7-7--7-7-7--7-5-5S--8--|
--------------3---------|--------------0--------|--------------------------------|


  S E  S S E  S S S E  S S E     S E  S S E  S S E  S S S   E     W                 
------------------------------|--------------------------------|-------------------|
------------------------------|--------------------------------|-------------------|
------------------------------|--------------------------------|-------------------|
--9-9--x-9-9--x---------------|--9-9--x-9-9--x-9-9--x-7-7S-10--|--9----------------|
--7-7--7-7-7--7-----8------8--|--7-7--7-7-7--7-7-7--7-5-5S--8--|--7----------------|
----------------0-0-6--0-0-6--|--------------------------------|-------------------|


  S E  S S E  S S E  S S S   E     S E  S S E  S S S E  S S E     S E  S S E  S S E  S S S   E   
--------------------------------|------------------------------|--------------------------------|
--------------------------------|------------------------------|--------------------------------|
--------------------------------|------------------------------|--------------------------------|
--9-9--x-9-9--x-9-9--x-7-7S-10--|--9-9--x-9-9--x---------------|--9-9--x-9-9--x-9-9--x-7-7S-10--|
--7-7--7-7-7--7-7-7--7-5-5S--8--|--7-7--7-7-7--7-----8------8--|--7-7--7-7-7--7-7-7--7-5-5S--8--|
--------------------------------|----------------0-0-6--0-0-6--|--------------------------------|


  S E  S S E  S S S E  S S E     E  E  S S S S S S S S S S E     E  E  S S S S S S S S S S E   
------------------------------|-------------------------------|-------------------------------|
------------------------------|-------------------------------|-------------------------------|
------------------------------|-------------------------------|-------------------------------|
--9-9--x-9-9--x---------------|--7--9----------------------7--|--7--9----------------------7--|
--7-7--7-7-7--7-----8------8--|--5--7----------------------5--|--5--7----------------------5--|
----------------0-0-6--0-0-6--|--------0-0-0-0-0-0-0-0-0-0----|--------0-0-0-0-0-0-0-0-0-0----|


  E  E  T T S T T S T T S T T S T T S E     E  E  T T S T T S T T S T T S T T S E   
-----------------------------------------|-----------------------------------------|
-----------------------------------------|-----------------------------------------|
-----------------------------------------|-----------------------------------------|
--7--9--------------------------------7--|--7--9--------------------------------7--|
--5--7--------------------------------5--|--5--7--------------------------------5--|
--------0-0-0-0-0-0-0-0-0-0-0-0-0-0-0----|--------0-0-0-0-0-0-0-0-0-0-0-0-0-0-0----|


   Q     Q     Q     S S E      Q     Q     Q     S E.      S S S S S S S S S S S S S S S S  
----------------------------|---------------------------|-----------------------------------|
----------------------------|---------------------------|-----------------------------------|
----------------------------|---------------------------|-----------------------------------|
--10----10----10----10-9----|--10----10----10----10-7---|--10-9-------9-----9-----9-----7---|
---8-----8-----8-----8-7----|---8-----8-----8-----8-5---|---8-7-------7-----7-----7-----5---|
----------------------------|---------------------------|-------0-0-0-0-0-0-0-0-0-0-0-0-----|


   S S S S S S S S S S S S S S S S    E  E  S S S S S S S S S S E     E  E  S S S S S S S S S S E   
-----------------------------------|-------------------------------|-------------------------------|
-----------------------------------|-------------------------------|-------------------------------|
-----------------------------------|-------------------------------|-------------------------------|
--10-9-------9-----9-----9-----7---|--7--9----------------------7--|--7--9----------------------7--|
---8-7-------7-----7-----7-----5---|--5--7----------------------5--|--5--7----------------------5--|
-------0-0-0-0-0-0-0-0-0-0-0-0-----|--------0-0-0-0-0-0-0-0-0-0----|--------0-0-0-0-0-0-0-0-0-0----|


  E  E  T T S T T S T T S T T S T T S E     E  E  T T S T T S T T S T T S T T S E   
-----------------------------------------|-----------------------------------------|
-----------------------------------------|-----------------------------------------|
-----------------------------------------|-----------------------------------------|
--7--9--------------------------------7--|--7--9--------------------------------7--|
--5--7--------------------------------5--|--5--7--------------------------------5--|
--------0-0-0-0-0-0-0-0-0-0-0-0-0-0-0----|--------0-0-0-0-0-0-0-0-0-0-0-0-0-0-0----|


   Q     Q     Q     S S E      Q     Q     Q     S E.      S S S S S S S S S S S S S S S S  
----------------------------|---------------------------|-----------------------------------|
----------------------------|---------------------------|-----------------------------------|
----------------------------|---------------------------|-----------------------------------|
--10----10----10----10-9----|--10----10----10----10-7---|--10-9-------9-----9-----9-----7---|
---8-----8-----8-----8-7----|---8-----8-----8-----8-5---|---8-7-------7-----7-----7-----5---|
----------------------------|---------------------------|-------0-0-0-0-0-0-0-0-0-0-0-0-----|


   S S S S S S S S S S S S S S S S    S E  S S E  S S E  S  S  S  E   
-----------------------------------|---------------------------------|
-----------------------------------|---------------------------------|
-----------------------------------|---------------------------------|
--10-9-------9-----9-----9-----7---|--9-9--x-9-9--x-9-9--x-10-10S-7--|
---8-7-------7-----7-----7-----5---|--7-7--7-7-7--7-7-7--7--8--8S-5--|
-------0-0-0-0-0-0-0-0-0-0-0-0-----|---------------------------------|


  S E  S S E  S S S E  S S E     S E  S S E  S S E  S  S  S  E     S  E  S S  E  S S  E  S S  E.   
------------------------------|---------------------------------|---------------------------------|
------------------------------|---------------------------------|---------------------------------|
------------------------------|---------------------------------|---------------------------------|
--9-9--x-9-9--x---------------|--9-9--x-9-9--x-9-9--x-10-10S-7--|---------------------------------|
--7-7--7-7-7--7-----8------8--|--7-7--7-7-7--7-7-7--7--8--8S-5--|--5-------5----------------------|
----------------0-0-6--0-0-6--|---------------------------------|--3p-0--0-3p-0--0-8p-6--0-3h-5---|


  S E  S S E  S S E  S  S  S  E     S E  S S E  S S S E  S S E     S E  S S E  S S E  S  S  S  E   
---------------------------------|------------------------------|---------------------------------|
---------------------------------|------------------------------|---------------------------------|
---------------------------------|------------------------------|---------------------------------|
--9-9--x-9-9--x-9-9--x-10-10S-7--|--9-9--x-9-9--x---------------|--9-9--x-9-9--x-9-9--x-10-10S-7--|
--7-7--7-7-7--7-7-7--7--8--8S-5--|--7-7--7-7-7--7-----8------8--|--7-7--7-7-7--7-7-7--7--8--8S-5--|
---------------------------------|----------------0-0-6--0-0-6--|---------------------------------|


  S  E  S S  E  S S  E  S S  E.    
---------------------------------||
---------------------------------||
---------------------------------||
---------------------------------||
--5-------5----------------------||
--3p-0--0-3p-0--0-8p-6--0-3h-5---||




Duration Legend
---------------
W - whole
H - half
Q - quarter
E - 8th
S - 16th
T - 32nd
X - 64th
. - note dotted
|-n-|  - n-tuplets


Tablature Legend
----------------
L - tied note
x - dead note
g - grace note
(n) - ghost note
> - accentuded note
NH - natural harmonic
AH - artificial harmonic
TH - tapped harmonic
SH - semi harmonic
PH - pitch harmonic
h - hammer on
p - pull off
b - bend
br - bendRelease
pb - preBend
pbr - preBendRelease
brb - bendReleaseBend
\n/ - tremolo bar dip
\n - tremolo bar dive
-/n - tremolo bar Release up
/n\ - tremolo bar inverted dip
/n - tremolo bar return
-\n - tremolo bar Release down
S - shift slide
s - legato slide
/ -  slide into from below or out of upwards
\ -  slide into from above or out of downwards
~ - vibrato
W - wide vibrato
tr - trill
TP - tremolo picking
T - tapping
S - slap
P - pop
< - fade in
^ - brush up
v - brush down
Tap to rate this tab
# A B C D E F G H I J K L M N O P Q R S T U V W X Y Z