Song name
# A B C D E F G H I J K L M N O P Q R S T U V W X Y Z

The Sword - Lords tab

HAVE FUN!


C |----------------5-7-9-7-5-0--| 2 times
G |----7p0-7p0-5-7--------------|
D#|-----------------------------|
A#|-----------------------------|
F |-----------------------------|
C |-----------------------------|

C |----------------0-2-3-2-0----|
G |----5-0-5-0-0-3-----------0--|
D#|-----------------------------|
A#|-----------------------------|
F |-----------------------------|
C |-----------------------------|


C |------------------0-2-0------|
G |----3-0-3-0-0-2-3-------3-2--|
D#|-----------------------------|
A#|-----------------------------|
F |-----------------------------|
C |-----------------------------|
Tap to rate this tab
 
# A B C D E F G H I J K L M N O P Q R S T U V W X Y Z