Song name
# A B C D E F G H I J K L M N O P Q R S T U V W X Y Z

The Sword - Arrows In The Dark tab

"Arrows In The Dark"
By: The Sword
Off the album, "Warp Riders" 2010

Tabbed by: Jason Bloss
email: jasonbloss@yahoo.com

C Standard Tuning!!!! (THIS!!!)
(CFA#D#GC)

Just thought I'd keep up the Sword momentum.
Key:DF(Drum Fill)

Riff 1-First 15 seconds are just spacey wind sounds.
(0:16-0:31)


e|-12-10-12-15-12-10--------------------12-10-12- 15-12-10------------------|
B|--------------------------------------------------------------------------|
G|-9--7--9--12--9--7----7h9------10-9----9--7--9--12--9--7---7h9------------|
D|--------------------9----------10-9----------------------9----------------|
A|-------------------------------8--7---------------------------------------|
E|--------------------------0~~----------------------------------0~---------|

e|--------------------------------------------------|
B|--------------------------------------------------|
G|-9-7-10-9-12-10-----------------------------------|
D|-9-7-10-9-12-10-----------------------------------|
A|-7-5-8--7-10-8------------------------------------|
E|--------------------------------------------------|

Riff 2
(0:32-0:47)

e|-------------------------------------------------------------------------|
B|-------------------------------------------------------------------------|
G|----------------------------------------------9-7-10-9-12-10-------------|
D|----------------------------------------------9-7-10-9-12-10-------------|
A|----------------------------------------------7-5-8--7-10- 8-------------|
E|-0-0000-0000-xx-0-0000-0000-xx-0-0000-0000-xx----------------------------|

e|--------------------------------------------------------------|
B|--------------------------------------------------------------|
G|------------------------------------------------------7-10----|
D|----------------------------------------------7-5-8-7-7-10----|
A|----------------------------------------------7-5-8-7-5-8-----|
E|-0-0000-0000-xx-0-0000-0000-xx-0-0000-0000-xx-5-3-6-5---------|

Riff 3
(0:48-1:18)

e|-------------------------------------------------------------------------|
B|-------------------------------------------------------------------------|
G|----------------------------------------------9-7-10-9-12-10-------------|
D|----------------------------------------------9-7-10-9-12-10-------------|
A|----------------------------------------------7-5-8--7-10- 8-------------|
E|-0-0000-0000-xx-0-0000-0000-xx-0-0000-0000-xx----------------------------|

e|------------------------------------------------------------------------|
B|------------------------------------------------------------------------|
G|----------------------------------------------10-9-12-10-12-14--9-9-9---|
D|----------------------------------------------10-9-12-10-12-14--9-9-9---|
A|----------------------------------------------8--7-10-8--10-12--7-7-7---|
E|-0-0000-0000-xx-0-0000-0000-xx-0-0000-0000-xx---------------------------|

e|-------------------------------------------------------------------------|
B|----10p8---10p8---10p8--10p8---8~~---------------------------------------|
G|-/9------9------9-----9------9-----9-9-9-7--------------7-9-9-9----------|
D|-----------------------------------9-9-9-7-8-7-5-7-8-7--7-9-9-9----------|
A|-----------------------------------7-7-7-5-8-7-5-7-8-7--5-7-7-7----------|
E|-------------------------------------------6-5-3-5-6-5-------------------|

e|-------------------------------------------------------|
B|----8-10-10b~~-----------------------------------------|
G|-/9------------9-9-9-7-9-11-12-11-9--------------------|
D|---------------9-9-9-7-9-11-12-11-9--------------------|
A|---------------7-7-7-5-7-9--10-9--7--------------------|
E|-------------------------------------------------------|

Riff 4
(1:19-1:42)

e|--------------------------------------------------------------------|
B|--------------------------------------------------------------------|
G|--------------------------------------------------------------------|
D|-7-99---------7-9-------------7-99---------12-11--------------------|
A|-5-77---------5-7-------------5-77---------10-9---------------------|
E|------00-00-0-----0-0-0-0-0-0------00-00-0-------0-0-0-0-0-0--------|


e|---------------------------------------------------------------------|
B|---------------------------------------------------------------------|
G|---------------------------------------------------------------------|
D|-7-99---------7-9-------------7-99---------9-7-----------------------|
A|-5-77---------5-7-------------5-77---------7-5-----------------------|
E|------00-00-0-----0-0-0-0-0-0------00-00-0-----0-0-0-0-0-0-----------|


e|------------------------------------------------------|
B|------------------------------------------------------|
G|------------------------------------------------------|
D|-7-99---------7-9-----------------------5-7-5-9~~-----|
A|-5-77---------5-7-------------5-7-5~~-7-------7~~-----|
E|------00-00-0-----0-0-0-0-0-0-------------------------|

(1:43-2:29) Just a repeat of riffs 2 and 3.

Riff 5-Just a variation of riff 2.
(2:30-2:44)

e|--------------------------------------------------------------|
B|--------------------------------------------------------------|
G|-7-9----------7-9----------7-9----------9-7-10-9-12-10--------|
D|-7-9----------7-9----------7-9----------9-7-10-9-12-10--------|
A|-5-7----------5-7----------5-7----------7-5-8--7-10-8---------|
E|-----0-0-0000-----0-0-0000-----0-0-0000-----------------------|

e|--------------------------------------------------------------|
B|--------------------------------------------------------------|
G|-7-9----------7-9----------7-9----------10-9-12-10-12-14------|
D|-7-9----------7-9----------7-9----------10-9-12-10-12-14------|
A|-5-7----------5-7----------5-7----------8--7-10-8--10-12------|
E|-----0-0-0000-----0-0-0000-----0-0-0000-----------------------|

Riff 6
(2:45-3:08)

e|------------------------------------------------------------------|
B|--------8---------------------------------------------------------|
G|----7-9---9-7---7h9----10-9-------------------------9-10----------|
D|-2------------9-----2--10-9---2------5-----------2--9-10----------|
A|-2------------------2--8--7---2--5h7---7-5---5h7-2--7-8-----------|
E|-0------------------0---------0------------7-----0----------------|

e|------------------------------------------------------------------|
B|------------------------------------------------------------------|
G|------------------------------------------------------------------|
D|-7-99----7-9----7-99----------------------------------------------|
A|-5-77-DF-5-7-DF-5-77-DF-5h7-5~~~----------------------------------|
E|------------------------------------------------------------------|

(3:09-3:48) Just riff 4 except at 3:28 it does:

e|----------------------------------------------------|
B|----------------------------------------------------|
G|----------------------------------------------------|
D|----------------------------------------------------|
A|-5-7-5~~----5-7-------------------------------------|
E|---------/7-----5-3---------------------------------|

and at 3:44....

e|----------------------------------------------------|
B|----------------------------------------------------|
G|----------------------------------------------------|
D|-----------5-7-5-4~~--------------------------------|
A|-5-7-5~~-7-----------5------------------------------|
E|----------------------------------------------------|

Riff 7 x2
(3:48-4:04)

e|-------------------------------------------------------------------|
B|-------------------------------------------------------------------|
G|-------------------------------------------------------------------|
D|-9-----9-----9-7-9------9------9-7--12-12-12-12-12-11-7-6-7-6-7-6--|
A|-7-----7-----7-5-7------7------7-5--10-10-10-10-10-9--5-4-5-4-5-4--|
E|---0000--0000------0000---0000-------------------------------------|

Riff 8
(4:05-end of song)

e|---------------------------------------------------------------------|
B|---------------------------------------------------------------------|
G|---------------------------------------------------------------------|
D|-9------9------9-7-9------9------9-7-12-11-12-14-12-11-7-6-7---6-7---|
A|-7------7------7-5-7------7------7-5-10-9--10-12-10-9--5-4-5-7-4-5---|
E|---0000---0000-------0000---0000-----------------------------5-------|


e|------------------------------------------------------------------------|
B|------------------------------------------------------------------------|
G|------------------------------------------------------------------9-----|
D|-9------9------9-7-9------9------9--7-6-7---6-7-12-11-12-14-12-11-9-----|
A|-7------7------7-5-7------7------7--5-4-5-7-4-5-10-9--10-12-10-9--7-----|
E|---0000---0000-------0000---0000----------5-----------------------------|

That's all of it. No solo, but its basically just the minor pentatonic scale in the key
of C. Of course the song is in C standard so keep that in mind. This is all MY tab
so if you have any Q's, hit me up on my email at the top. Enjoy!
Tap to rate this tab
 
# A B C D E F G H I J K L M N O P Q R S T U V W X Y Z