Song name
# A B C D E F G H I J K L M N O P Q R S T U V W X Y Z

The Sword - Tres Brujas tab

The Sword   -artist
"Tres Brujas"  -song
Warp Riders  -album

I do not own any rights to this song.

I could only tab the intro to the end of the chorus (including the first solo fill), but 
soon as i have a free day i will tab the rest.

Intro
|---------------------------------------------------------------|
|---------------------------------------------------------------|
|---------------------------------------------------------------|
|-------------------------------------------7-7-----------------|
|-7-9-7-5-7-9-9---7-9-7-5-7-9-9-------5-7-9-------7-9-7-5-7-9-9-|
|-----------7-7-------------7-7---5-7-----------------------7-7-|

main riff
|--------------------------------------|------------------------------------|
|--------------------------------------|------------------------------------|
|--------------------------------------|------------------------------------|
|--------------------------------------|----------------------------------7-|
|-7\9---9--7\9---9--7-9---9--7\9\12\10-|-7\9---9--7\9---9--7\9---9--7\9---5-|
|-5\7-0-7--5\7-0-7--5\7-0-7--5\7\10\8--|-5\7-0-7--5\7-0-7--5\7-0-7--5\7-0---|

1st solo fill
|----------------------------------------------------------------------|
|----10--------------------------\12-10-12-12^-12-10-10----------------|
|-9^---9^-7-----------9^9^-7~---------------------------10p7--7h9p7----|
|-----------9-7---7-9---------------------------------------9-------9~-|
|---------------9------------------------------------------------------|
|----------------------------------------------------------------------|

main riff
|--------------------------------------|--------------------------------------|
|--------------------------------------|--------------------------------------|
|--------------------------------------|--------------------------------------|
|--------------------------------------|-----------------------------------7--|
|--7\9---9--7\9---9--7-9---9--7\9\12\10-|-7\9---9--7\9---9--7\9---9--7\9---5--|
|\-5\7-0-7--5\7-0-7--5\7-0-7--5\7\10\8--|-5\7-0-7--5\7-0-7--5\7-0-7--5\7-0----|


chorus ( "three witches you will meet....")
|-------------------------------------|-----------------------------------|
|-------------------------------------|-----------------------------------|
|-------------------------------------|-----------------------------------|
|----------------------------9\7--7---|-----------------------------------|
|-9-9-9\7--9-9-9\7--9-9-9\7--7\5--5-7-|-9-9-9\7--9-9-9\7--9-9-9\7--10\12--|
|-7-7-7\5--7-7-7\5--7-7-7\5---------5-|-7-7-7\5--7-7-7\5--7-7-7\5---8\10--|

then this little riff starts.
|-----------------------------|--------------|
|-----------------------------|--------------|
|-----------------------------|--------------|
|------7\9--------------------|-------9/7----|
|-5\7--5\7---10-10-10-10\12---|-5\7---7/5----|
|-3\5-0----0-8--8--8---8\10-0-|-3\5-------0--|
Tap to rate this tab
 
# A B C D E F G H I J K L M N O P Q R S T U V W X Y Z