The Sword - Ebethron tab

Artist: The Sword
  song: Ebethron
Quality: quAliTy!!


symbols:
~ =vibrate
e|---------------------------------------|
B|---------------------------------------|
G|---------------------------------------|
D|-4-6-4-6-------------------------------|
A|-2-4-2-4-4-4-4-4-4-4-4-4-4-4-4-4-4-4-4-|
E|---------------------------------------|

e|---------------------------------------|
B|---------------------------------------|
G|---------------------------------------|
D|-4-6-4-6-------------------------------|
A|-2-4-2-4-4-4-4-4-4-4-4-4-4-4-2~4~------|
E|----------------------------------2~---|

e|---------------------------------------|
B|---------------------------------------|
G|---------------------------------------|
D|-4-6-4-6-------------------------------|
A|-2-4-2-4-4-4-4-4-4-4-4-4-4-4-4-4-4-4-4-|
E|---------------------------------------|
Tap to rate this tab
 
# A B C D E F G H I J K L M N O P Q R S T U V W X Y Z