Song name
# A B C D E F G H I J K L M N O P Q R S T U V W X Y Z

The Sword - Night City tab

-------------------------------------------------------------------------------
     night city - the sword
-------------------------------------------------------------------------------
Tabbed by: aaron
E-mail:
i didn't add palm mutes but i think you can figure them out, also i don't know the
solos or the interlude before the 2nd solo

Tuning:i think C standard but it might be half a step off

riff a
e|---------------------------------------------------------------------------|
B|---------------------------------------------------------------------------|
G|------5h7---5h7---5h7---5--7-----------------------------------------------|
D|---5h7---5h7---5h7---5h7---------------------------------------------------|
A|---------------------------------------------------------------------------|
E|---------------------------------------------------------------------------|
riff b
e|---------------------------------------------------------------------------|
B|-------8-6-----8-6---------------------------------------------------------|
G|---7--------7-------7p5h7--------------------------------------------------|
D|---------------------------------------------------------------------------|
A|---------------------------------------------------------------------------|
E|---------------------------------------------------------------------------|
riff c
e|---------------------------------------------------------------------------|
B|---------------------------------------------------------------------------|
G|---7--5--------------------------------------------------------------------|
D|---------7-6-5-------------------------------------------------------------|
A|---------------------------------------------------------------------------|
E|---------------------------------------------------------------------------|
riff d
sometimes in last part of this riff he hammers on from 3 to 5 at the end of the
song this turns into power chords
e|---------------------------------------------------------------------------|
B|---------------------------------------------------------------------------|
G|---------------------------------------------------------------------------|
D|------3---------------------3----------------------------------------------|
A|--3-5-----5-3-5---3---3---5---5--------------------------------------------|
E|--------------------5------------------------------------------------------|
riff e
e|---------------------------------------------------------------------------|
B|---------------------------------------------------------------------------|
G|--------5-----5b-----------------------------------------------------------|
D|--------3-----3b--5----2--5--7-----2--5--7---------------------------------|
A|--3--5------------3----0--3--5-----0--3--5---------------------------------|
E|---------------------------------------------------------------------------|
riff f
e|---------------------------------------------------------------------------|
B|---------------------------------------------------------------------------|
G|--------5------5b----------------------------------------------------------|
D|--2--5--3------3b--5---2--5--7-----2--5--7---------7/9\5/7-----------------|
A|--0--3-------------3---0--3--5-----0--3--5---------5/7\3/5-----------------|
E|---------------------------------------------------------------------------|
riff g
e|-------------------------------------------------------------------------------------|
B|-------------------------------------------------------------------------------------|
G|-------------------------------------------------------------------------------------|
D|-7-7-x-7-x-7--7-x-7-x-5--5-x-5-x-5--5-x-5-x-10-10-x-10-x-12--12-x-12-x-3--3-x-3-x-3--|
A|-5-5-x-5-x-5--5-x-5-x-3--3-x-3-x-3--3-x-3-x-8--8--x-8--x-10--10-x-10-x-5--5-x-5-x-5--|
E|-------------------------------------------------------------------------------------|
riff h
e|---------------------------------------------------------------------------|
B|---------------------------------------------------------------------------|
G|---------------------------------------------------------------------------|
D|------------------10-12--10-12--12b--10------------------------------------|
A|--10/12-x-10/12-x-8--10--8--10--10b--8-------------------------------------|
E|--8/-10-x-8/-10-x----------------------------------------------------------|
riff i
e|---------------------------------------------------------------------------|
B|---------------------------------------------------------------------------|
G|---------------------------------------------------------------------------|
D|---8--6--8--6--6b-8--------------------------------------------------------|
A|---6--8--6--8--8b-6--------------------------------------------------------|
E|---------------------------------------------------------------------------|
riff j
e|------------------------------------------------------------------------------|
B|------------------------------------------------------------------------------|
G|------------------------------------------------------------------------------|
D|------3-----------------------------------------------------------------------|
A|--3-5---5---------------------------------------------------------------------|
E|------------------------------------------------------------------------------|
riff k i don't know the end of this riff
e|---------------------------------------------------------------------------|
B|---------------------------------------------------------------------------|
G|---------------------------------------------------------------------------|
D|-------3--------------3----------------------------------------------------|
A|---3-5------5-3-5-3-5------5-3-5-3--3----5-3-5-3---3-----------------------|
E|----------------------------------5--------------5-------------------------|

ax3 b ax3 c dx6 e f g hx4 i j dx6 e f g k ax3 b ax3 interlude hx4 i dx8

************************************

| /   slide up
| \   slide down
| h   hammer-on
| p   pull-off
| ~   vibrato
| +   harmonic
| x   Mute note
| b   Bend
| pb  Pre-bend
| br  Bend release
| pbr Pre-bend release
| brb Bend release bend

************************************
Tap to rate this tab
# A B C D E F G H I J K L M N O P Q R S T U V W X Y Z