Song name
# A B C D E F G H I J K L M N O P Q R S T U V W X Y Z

The Sword - Freya tab

The Sword                                    
Age of Winters
Freya                                       
Track 3
Tuning : 2 steps down (CFA#D#GC)


       E.  S   E    E.  S S  S S  S S  S    E.  S   E    E.  S S S S  S E    
C ||-------------------------------------|----------------------------------|
G ||-------------------------------------|----------------------------------|
D#||*------------------------------------|----------------------------------|
A#||*------------------------------------|------------------------------5~--|
F ||---2-----5g7--5g7---5-7p-5-----------|--2-----5g7--5g7---5-7-5----------|
C ||---0---0-------------------6p-5-3h-5-|--0---0------------------6p-5-----|


  E.  S   E    E.  S S  S S  S S  S    E.  S E  E.  S S   S E  E     
------------------------------------|------------------------------||
------------------------------------|------------------------------||
------------------------------------|-----------------------------*||
------------------------------------|-----------------------------*||
--2-----5g7--5g7---5-7p-5-----------|--7---------------------------||
--0---0-------------------6p-5-3h-5-|--5---5-3--5---3-5br-L-L--3---||


  PM PM PM PM PM PM PM PM PM PM PM PM PM PM PM PM PM  
  S  S  S  S  S  S  S  S  S  S  S  S  S  S  S  T  T   
-----------------------------------------------------|
-----------------------------------------------------|
-----------------------------------------------------|
-----------------------------------------------------|
-----------------------------------------------------|
--0--0--0--0--0--0--0--0--0--0--0--0--0--0--0--0--0--|


  PM PM PM PM     PM PM     PM PM PM PM PM PM PM PM PM  
  S  S  S  S   S  S  S   S  S  S  S  S  S  S  S  T  T   
-------------------------------------------------------|
-------------------------------------------------------|
-------------------------------------------------------|
--------------(2)-------(2)----------------------------|
--------------(2)-------(2)----------------------------|
--0--0--0--0---0--0--0---0--0--0--0--0--0--0--0--0--0--|


    PM PM PM PM   PM PM    PM    PM     PM PM PM PM    
    S  S  S  S  S S  S  S  S  S  S  S S S  S  T  T   3x
|----------------------------------------------------||
|----------------------------------------------------||
|*--------------------------------------------------*||
|*--------------9-------9-----7-----9-9-------------*||
|---------------7-------7-----5-----7-7--------------||
|---0--0--0--0----0--0----(0)---(0)-----0--0--0--0---||


   Q    Q     S   S  E  Q     
-----------------------------|
-----------------------------|
-----------------------------|
--10----9----12s-14-12--9----|
---8----7----10s-12-10--7----|
-----------------------------|


    PM PM PM PM   PM PM    PM    PM     PM PM PM PM    
    S  S  S  S  S S  S  S  S  S  S  S S S  S  T  T     
|----------------------------------------------------||
|----------------------------------------------------||
|*--------------------------------------------------*||
|*--------------9-------9-----7-----9-9-------------*||
|---------------7-------7-----5-----7-7--------------||
|---0--0--0--0----0--0----(0)---(0)-----0--0--0--0---||


  PM PM PM PM   PM PM     PM     PM      PM PM PM PM                            
  S  S  S  S  S S  S   S  S   S  S   S S S  S  T  T     Q    Q    S S E  Q      
-----------------------------------------------------|-------------------------|
-----------------------------------------------------|-------------------------|
-----------------------------------------------------|-------------------------|
--------------9-------10-----12-----10-9-------------|--7----7-----------------|
--------------7--------8-----10------8-7-------------|--5----5-----------------|
--0--0--0--0----0--0-----(0)----(0)------0--0--0--0--|------------6-5-6--3b----|


     Q     E  E  E  E  E  E     S  S  E  Q     E    S   S  Q     6x
|----------------------------|-----------------------------------||
|----------------------------|-----------------------------------||
|*---------------------------|----------------------------------*||
|*---------9--9--9--7--7--7--|--7s-9-12--9---------12s-14-12----*||
|---(2)----7--7--7--5--5--5--|--5s-7-10--7----(2)--10s-12-10-----||
|----0-----------------------|-----------------0-----------------||


   S  E  S  S  E  S S  E  S  S  E  S  3x  S  E  S  S  E  S S  E  S  S  E.    
--------------------------------------||------------------------------------|
--------------------------------------||------------------------------------|
*------------------------------------*||------------------------------------|
*--7s-9-------------7s-9-------------*||--7s-9-------------7s-9-------------|
---5s-7-------------5s-7--------------||--5s-7-------------5s-7-------------|
---------0h-3p-0--0-------0h-3p-0--0--||--------0h-3p-0--0-------0h-3S-5b---|


    PM PM PM PM   PM PM    PM    PM     PM PM PM PM    
    S  S  S  S  S S  S  S  S  S  S  S S S  S  T  T   3x
|----------------------------------------------------||
|----------------------------------------------------||
|*--------------------------------------------------*||
|*--------------9-------9-----7-----9-9-------------*||
|---------------7-------7-----5-----7-7--------------||
|---0--0--0--0----0--0----(0)---(0)-----0--0--0--0---||


   Q    Q     S   S  E  Q     
-----------------------------|
-----------------------------|
-----------------------------|
--10----9----12s-14-12--9----|
---8----7----10s-12-10--7----|
-----------------------------|


  PM PM PM PM   PM PM    PM    PM     PM PM PM PM  
  S  S  S  S  S S  S  S  S  S  S  S S S  S  T  T   
--------------------------------------------------|
--------------------------------------------------|
--------------------------------------------------|
--------------9-------9-----7-----9-9-------------|
--------------7-------7-----5-----7-7-------------|
--0--0--0--0----0--0----(0)---(0)-----0--0--0--0--|


  PM PM PM PM   PM PM    PM    PM     PM PM PM PM  
  S  S  S  S  S S  S  S  S  S  S  S S S  S  T  T   
--------------------------------------------------|
--------------------------------------------------|
--------------------------------------------------|
--------------9-------9-----7-----9-9-------------|
--------------7-------7-----5-----7-7-------------|
--0--0--0--0----0--0----(0)---(0)-----0--0--0--0--|


  PM PM PM PM   PM PM     PM     PM      PM PM PM PM                            
  S  S  S  S  S S  S   S  S   S  S   S S S  S  T  T     Q    Q    S S E  Q      
-----------------------------------------------------|-------------------------|
-----------------------------------------------------|-------------------------|
-----------------------------------------------------|-------------------------|
--------------9-------10-----12-----10-9-------------|--7----7-----------------|
--------------7--------8-----10------8-7-------------|--5----5-----------------|
--0--0--0--0----0--0-----(0)----(0)------0--0--0--0--|------------6-5-6--3b----|


     Q     E  E  E  E  E  E     S  S  E  Q     E    S   S  Q     6x
|----------------------------|-----------------------------------||
|----------------------------|-----------------------------------||
|*---------------------------|----------------------------------*||
|*---------9--9--9--7--7--7--|--7s-9-12--9---------12s-14-12----*||
|---(2)----7--7--7--5--5--5--|--5s-7-10--7----(2)--10s-12-10-----||
|----0-----------------------|-----------------0-----------------||


   S  E  S  S  E  S S  E  S  S  E  S  8x   S S  E  S S  E  S S  E  S S  E   4x
--------------------------------------||------------------------------------||
--------------------------------------||------------------------------------||
*------------------------------------*||*----------------------------------*||
*--7s-9-------------7s-9-------------*||*----------------------------------*||
---5s-7-------------5s-7--------------||------------------------------------||
---------0h-3p-0--0-------0h-3p-0--0--||---0-6p-0--0-6p-0--0-6p-0--0-6p-0---||


   S S  E  S S  E  S S  E  S S  E   4x
------------------------------------||
------------------------------------||
*----------------------------------*||
*----------------------------------*||
------------------------------------||
---0-1p-0--0-1p-0--0-1p-0--0-1p-0---||


    S   S  E   S   S  E   S   S  E   S   S  E   4x
------------------------------------------------||
------------------------------------------------||
*----------------------------------------------*||
*------10--9------10--9------10--9------10--9--*||
--------8p-7-------8p-7-------8p-7-------8p-7---||
---(0)--------(0)--------(0)--------(0)---------||


   S  S  E  S  S  E  S  S  E  S  S  E   4x  S S  E  S S  E  S S  E  S S  E   
----------------------------------------||----------------------------------|
----------------------------------------||----------------------------------|
*--------------------------------------*||----------------------------------|
*----10s-9----10s-9----10s-9----10s-9--*||----7s-9----7s-9----7s-9----7s-9--|
------8s-7-----8s-7-----8s-7-----8s-7---||----5s-7----5s-7----5s-7----5s-7--|
---0--------0--------0--------0---------||--0-------0-------0-------0-------|


  S S  E  S S  E  S S  E  S S  E      S S  E  S S  E  S S  E  S S  E   
-----------------------------------|----------------------------------|
-----------------------------------|----------------------------------|
-----------------------------------|----------------------------------|
----7s-9----7s-9----7s-9-----------|----7s-9----7s-9----7s-9----7s-9--|
----5s-7----5s-7----5s-7----5--7---|----5s-7----5s-7----5s-7----5s-7--|
--0-------0-------0-------0-3s-5b--|--0-------0-------0-------0-------|


  S S  E  S S  E  S S  E  S  S   E.     Q     E.  S E  E  E  E   
-------------------------------------|--------------------------|
-------------------------------------|--------------------------|
-------------------------------------|--9~----7-----7-----------|
----7s-9----7s-9----7s-9----14s-12---|------------9----9--7--5--|
----5s-7----5s-7----5s-7----12s-10---|--------------------------|
--0-------0-------0-------0----------|--------------------------|


  S S Q    S S H           S S Q    S S H         
------------------------|------------------------|
------------------------|------------------------|
------------------------|------------------------|
--9-9------7-9----------|--9-9------7-9----------|
--7-7------5-7----------|--7-7------5-7----------|
------------------------|------------------------|


  S S Q    S S S S S S T  T  S S  S    S S Q    S S S S S S T  T  S S S  
------------------------------------|-----------------------------------|
------------------------------------|-----------------------------------|
------------------------------------|-----------------------------------|
--9-9------7-9----------------------|--9-9------7-9---------5h-7p-5-----|
--7-7------5-7-------5-5h-7p-5-7~-L-|--7-7------5-7-------5---------7-L-|
-----------------5-7----------------|-----------------5-7---------------|


  S S Q    S S S T  T S S S  S E     S S Q    S S S T  T T  T  S S S E    
----------------------------------|--------------------------------------|
----------------------------------|--------------------------------------|
----------------------------------|--------------------------------------|
--9-9------7-9---9p-7-5---7p-5----|--9-9------7-9----------------5---5~--|
--7-7------5-7----------7------7--|--7-7------5-7--------5h-7p-5---7-----|
----------------------------------|-----------------5h-7-----------------|


  S S Q    S S H           S S Q    S S H           S S Q    S S H         
------------------------|------------------------|------------------------|
------------------------|------------------------|------------------------|
------------------------|------------------------|------------------------|
--9-9------7-9----------|--9-9------7-9----------|--9-9------7-9----------|
--7-7------5-7----------|--7-7------5-7----------|--7-7------5-7----------|
------------------------|------------------------|------------------------|


  S S Q    S S H           S S Q    S S S S S S T  T  S S  S  
------------------------|------------------------------------|
------------------------|------------------------------------|
------------------------|------------------------------------|
--9-9------7-9----------|--9-9------7-9----------------------|
--7-7------5-7----------|--7-7------5-7-------5-5h-7p-5-7~-L-|
------------------------|-----------------5-7----------------|


  S S Q    S S S S S S T  T  S S S    S S Q    S S S T  T S S S S S S  
-----------------------------------|----------------------------------|
-----------------------------------|----------------------------------|
-----------------------------------|-----------------9p-7-------------|
--9-9------7-9---------5h-7p-5-----|--9-9------7-9----------7-9-7-5---|
--7-7------5-7-------5---------7-L-|--7-7------5-7--------9---------7-|
-----------------5-7---------------|----------------------------------|


  H           Q     Q       E.  S   E    E.  S S  S S  S S  S  
-------------------------|------------------------------------|
-------------------------|------------------------------------|
-------------------12----|------------------------------------|
--8b--------/14----------|------------------------------------|
-------------------------|--2-----5g7--5g7---5-7p-5-----------|
-------------------------|--0---0-------------------6p-5-3h-5-|


  E.  S   E    E.  S S S S  S E      E.  S   E    E.  S S  S S  S S  S  
----------------------------------|------------------------------------|
----------------------------------|------------------------------------|
----------------------------------|------------------------------------|
------------------------------5~--|------------------------------------|
--2-----5g7--5g7---5-7-5----------|--2-----5g7--5g7---5-7p-5-----------|
--0---0------------------6p-5-----|--0---0-------------------6p-5-3h-5-|


  E.  S E  E.  S S   S E  E     E.  S   E    E.  S S  S S  S S  S  
-----------------------------|------------------------------------|
-----------------------------|------------------------------------|
-----------------------------|------------------------------------|
-----------------------------|------------------------------------|
--7--------------------------|--2-----5g7--5g7---5-7p-5-----------|
--5---5-3--5---3-5br-L-L--3--|--0---0-------------------6p-5-3h-5-|


  E.  S   E    E.  S S S S  S E      E.  S   E    E.  S S  S S  S S  S  
----------------------------------|------------------------------------|
----------------------------------|------------------------------------|
----------------------------------|------------------------------------|
------------------------------5~--|------------------------------------|
--2-----5g7--5g7---5-7-5----------|--2-----5g7--5g7---5-7p-5-----------|
--0---0------------------6p-5-----|--0---0-------------------6p-5-3h-5-|


  E.  S E  E.  S S   S E  E     E  E  Q    H           W                  
-----------------------------|----------------------|-------------------||
-----------------------------|----------------------|-------------------||
-----------------------------|----------------------|-------------------||
-----------------------------|--2-------------------|-------------------||
--7--------------------------|--2-------------------|-------------------||
--5---5-3--5---3-5br-L-L--3--|--0-------------------|-------------------||




Duration Legend
---------------
W - whole
H - half
Q - quarter
E - 8th
S - 16th
T - 32nd
X - 64th
. - note dotted
|-n-|  - n-tuplets


Tablature Legend
----------------
L - tied note
x - dead note
g - grace note
(n) - ghost note
> - accentuded note
NH - natural harmonic
AH - artificial harmonic
TH - tapped harmonic
SH - semi harmonic
PH - pitch harmonic
h - hammer on
p - pull off
b - bend
br - bendRelease
pb - preBend
pbr - preBendRelease
brb - bendReleaseBend
\n/ - tremolo bar dip
\n - tremolo bar dive
-/n - tremolo bar Release up
/n\ - tremolo bar inverted dip
/n - tremolo bar return
-\n - tremolo bar Release down
S - shift slide
s - legato slide
/ -  slide into from below or out of upwards
\ -  slide into from above or out of downwards
~ - vibrato
W - wide vibrato
tr - trill
TP - tremolo picking
T - tapping
S - slap
P - pop
< - fade in
^ - brush up
v - brush down
Tap to rate this tab
# A B C D E F G H I J K L M N O P Q R S T U V W X Y Z