Song name
# A B C D E F G H I J K L M N O P Q R S T U V W X Y Z

The Tad Kent Project - Tell Me With Your Eyes Acoustic tab

-------------------------------------------------------------------------------
         TELL ME WITH YOUR EYES(ACOUSTIC)-THE TAD KENT PROJECT
-------------------------------------------------------------------------------
Tabbed by:TADKENTFAN101

Tuning:DROP D

INTRO:
e|--5-5-5-5--5-5-5-5---------------------5-5-5-5--5-5-5-5--5-5--5--------------|
B|--5-5-5-5--5-5-5-5---------------------5-5-5-5--5-5-5-5--5-5--5--------------|
G|--7-7-7-7--6-6-6-6---------------------7-7-7-7--6-6-6-6--6-7--7--------------|
D|--7-7-7-7--7-7-7-7--5-5-5--0-0--7-7-7--7-7-7-7--7-7-7-7--7-7--7--7-----------|
A|--5-5-5-5--5-5-5-5--5-5-5--0-0--7-7-7--5-5-5-5--5-5-5-5--5-5--5--7-----------|
E|--x-x-x-x--x-x-x-x--5-5-5--0-0--7-7-7--x-x-x-x--x-x-x-x--5-5--x--7-----------|


e|--5-5------------------------------------------------------------------------|
B|--5-5------------------------------------------------------------------------|
G|--7-7------------------------------------------------------------------------|
D|--7-7--7-7-7-----------------------------------------------------------------|
A|--5-5--7-7-7-----------------------------------------------------------------|
E|-------7-7-7-----------------------------------------------------------------|

e|-----------------------------------------------------------------------------|
B|-----------------------------------------------------------------------------|
G|-----------------------------------------------------------------------------|
D|--0-0-0-x-0-0-0-0------------------------------------------------------------|
A|--0-0-0-x-0-0-0-0------------------------------------------------------------|
E|--0-0-0-x-0-0-0-0------------------------------------------------------------|
 (repeat until "Shhh"

 VERSE 1:
e|---------------------------------------------------------------------------|
B|---------------------------------------------------------------------------|
G|---------------------------------------------------------------------------|
D|-0-0-0-0---------5-5-5-5-5----------------0-0-0-0--------------------------|
A|-0-0-0-0---------5-5-5-5-5----------------0-0-0-0--------------------------|
E|-0-0-0-0---------5-5-5-5-5----------------0-0-0-0--------------------------|
"Tell me one thing I don't know about you... I'll give you a list of things


e|---------------------------------------------------------------------------|
B|---------------------------------------------------------------------------|
G|---------------------------------------------------------------------------|
D|-----7-7-7-7---------5-5-5-5-----------------------------------------------|
A|-----7-7-7-7---------5-5-5-5-----------------------------------------------|
E|-----7-7-7-7---------5-5-5-5-----------------------------------------------|
 "You Know I'd do for you!

PRE-CHORUS:
e|--7-7-7-7-7--------------------------------------------------------------------|
B|--3-3-3-3-3--------------------------------------------------------------------|
G|--2-2-2-2-2--------------------------------------------------------------------|
D|--0-0-0-0-0-----------5-5-5-5-5----------7-7-7-------------------5-5-5---------|
A|--0-0-0-0-0-----------5-5-5-5-5----------7-7-7-------------------5-5-5---------|
E|--0-0-0-0-0-----------5-5-5-5-5----------7-7-7-------------------5-5-5---------|
  "So cross your fingers,And we'll pretend Silences your new best friend
  Everything's alright cause

CHORUS: INTRO (WITH LYRICS)

INTERLUDE:
e|-------------------------------------------------------------------------------|
B|-------------------------------------------------------------------------------|
G|-7-7-7-7--6-6-6-6--9-9-9-9--7-7-7-7(x2)----------------------------------------|
D|-7-7-7-7--7-7-7-7--7-7-7-7--7-7-7-7--------------------------------------------|
A|-5-5-5-5--5-5-5-5--5-5-5-5--5-5-5-5--------------------------------------------|
E|-------------------------------------------------------------------------------|
"Girl I swear...It's so unfair....seems so pointless"

VERSE 2:
e|---------------------------------------------------------------------------|
B|---------------------------------------------------------------------------|
G|---------------------------------------------------------------------------|
D|---0-0-0-0----------5-5-5-5--------0-0-0-0------------------7-7-7-5-5-5----|
A|---0-0-0-0----------5-5-5-5--------0-0-0-0------------------7-7-7-5-5-5----|
E|---0-0-0-0----------5-5-5-5--------0-0-0-0------------------7-7-7-5-5-5----|
" Oh I promise I won't........Bite!  Guess You're scared I Just might..."

PRE-CHORUS:
      Dmaj                          Asus
"Lean in, whisper something in your ear
            Cadd9            B      A      G
Maybe that song of hope you don't wanna hear...  But too bad!"

CHORUS 1X

BRIDGE:
e|---------------------------------------------------------------------------|
B|---------------------------------------------------------------------------|
G|---------------------------------------------------------------------------|
D|--5---------------7--------------0-----------------------------------------|
A|--5---------------7--------------0-----------------------------------------|
E|--5---------------7--------------0-----------------------------------------|
   " That look you give me makes me s-s-stutter!
So instead of glaring won't you help me make it B-b-better?
Oh I promise it'll be worth it, worth it...
We all had so much, don't let me forget it"

PARTIAL CHORUS:
e|--5-5-5-5--5-5-5-5--5-5-5--------------------------------------------------|
B|--5-5-5-5--5-5-5-5--5-5-5--------------------------------------------------|
G|--7-7-7-7--6-6-6-6--6-6-7--------------------------------------------------|
D|--7-7-7-7--7-7-7-7--7-7-7----------------------------0---------------------|
A|--5-5-5-5--5-5-5-5--5-5-5----------------------------0---------------------|
E|--------------------5-5-5----------------------------0---------------------|
" Talk to me... Tell me what I already know... Your thinkin'!" (Let ring)

KEY CHANGE:
e|--6-6-6--6-6---------6-6---------------------------------------------------|
B|--6-6-6--6-6---------6-6---------------------------------------------------|
G|--8-8-8--7-7---------8-8---------------------------------------------------|
D|--8-8-8--8-8--6-6-6--8-8--8-8-8--------------------------------------------|
A|--6-6-6--6-6--6-6-6--6-6--8-8-8--------------------------------------------|
E|--------------6-6-6-------8-8-8--------------------------------------------|
X2



| /  slide up
| \  slide down
| h  hammer-on
| p  pull-off
| ~  vibrato
| +  harmonic
| x  Mute note
Tap to rate this tab
# A B C D E F G H I J K L M N O P Q R S T U V W X Y Z