Guitaretab - guitar tabs
Song name
# A B C D E F G H I J K L M N O P Q R S T U V W X Y Z

The Takeover Uk - Ah La La tab

Really catchy song by The Takeover UK as heard on the commercial for the new ABC Show "Castle"

http://www.rykodisc.com/thetakeoveruk/bio/

Standard Tuning

Intro
First Guitar
e|----------------------------------------------|
b|------8-8-8-------8-8-8-------8-8-8-8---------|
g|--7-7-9-9-9-7-7-7-9-9-9-7-7-7-9-9-9-9---------|
d|--9-9-------9-9-9-------9-9-9-----------------|
a|----------------------------------------------|
e|----------------------------------------------|
[ Tab from: http://www.guitaretab.com/t/the-takeover-uk/177659.html ]
Second Guitar
e|----------------------------------------------|
b|----------------------------------------------|
g|----------------------------------------------|
d|----------------------------------------------|
a|--------------------------------7-7-7-4-4-4---|
e|--------------------------------5-5-5-2-2-2---|

First Guitar
e|----------------------------------------------|
b|----------------------------------------------|
g|-----7----------------------------------------| x4
d|-7-9------------------------------------------|
a|-------7-8-7-5--------------------------------|
e|----------------------------------------------|
(hammer on and pull off the 7-8-7 part)

Second Guitar
e|------------------------------------------------|
b|------------------------------------------------|
g|------------------------------------------------|
d|-----9-9-9-------9-9-9-------9-9-9-9------------|
a|-9-9-7-7-7-9-9-9-7-7-7-9-9-9-7-7-7-7-7-7-7-4-4-4|
e|-7-7-------7-7-7-------7-7-7---------5-5-5-2-2-2|

There Ya Go!



Advertisement will be closed in 10 seconds