Guitaretab - guitar tabs
Song name
# A B C D E F G H I J K L M N O P Q R S T U V W X Y Z

The Tall Poppies - Get Away Girl tab

"GET AWAY GIRL" - by The Tall Poppies!

This is a great new Aussie band and you can find more info at www.thetallpoppies.com.au
Rock On!


First Part:
|--------------------------------------------|[About 3 Times]
|--------------------------------------------|
|----5--5--5----9--9--9----------------------|
|----5--5--5----9--9--9----7--7----5--5--5---|
|----3--3--3----7--7--7----7--7----5--5--5---|
|--------------------------5--5----3--3--3---|
[ Tab from: http://www.guitaretab.com/t/the-tall-poppies/61196.html ]
Second Part:
|-------------------------------------------------------------------------|
|-------------------------------------------------------------------------|
|--5--5--5---9--9--9------------------------------------------------------|
|--5--5--5---9--9--9---7--7---5--5---3--3--3--3--3--3---5--5--5--5--5--5--|
|--3--3--3---7--7--7---7--7---5--5---3--3--3--3--3--3---5--5--5--5--5--5--|
|----------------------5--5---3--3---1--1--1--1--1--1---3--3--3--3--3--3--|