Song name
# A B C D E F G H I J K L M N O P Q R S T U V W X Y Z

The Tallest Man On Earth - Where Do My Bluebirds Fly tab

The tallest man on earth  Where do my bluebird fly

Intro part1   

strummed slowly
d |--0--0--3--0-|
Bb|--0--0--0--0-|
G |--3--2--0--2-|
D |--5--4--1--3-|
A |--------0--0-|
D |--------1--3-|

picked
d |--0--0----3---0--------0--0------3---0------0-|
Bb|--0--0--0-----0--------0--0---0------0------2-|
G |--3--2--0-----0---2----3--2---0------0-h2---2-|
D |--5--4--1-----3--------5--4---1------3------0-|
A |--------0-----0---------------0------0------0-|
D |--------1-----3---------------1------3--------|

Intro/verse part 2 
2x 
d |---0-0--1--0-3-0-------|
Bb|---0-0--0--0---0-------|
G |-h2--2--2--0---0-h2----|
D |---0-3--3--1---3-------|
A |---0----0--0---0-------|
D |---0-------1---3-------|
               
Oh, well I knew you shook the set-up baby, 
of all the leaves up in the ground
And I know your song is all but healthy
as I see dry leaves fallin' down, oh 

chorus

d |---3--0--0--3--0----0----0---0-| 
Bb|---0--0--4--0--0----0----0--h2-|
G |---0--2--3--0--2----2----0---0-|
D |---1--3--0--1--3----3---s1---0-|
A |---0--0--3--0--0----0----0---0-|
D |---1--3--0--1--3----3---s1---0-|

With all this fever in my mind, I could drown in your kerosene eyes
Oh, you're just a riddle in the sky
Oh, where do my bluebirds fly? 

intro part2

Verse

And as the early sign of dawn of thunder
I see you stir the fog around
And when you find the boys and gears of sunset
we'll hear that high and lonesome sound, oh

Chorus

And I will question every wind if they gone through the glow of your eyes
Oh, you're just a riddle in the sky
Oh, where do my bluebirds fly?
I say where do my bluebirds fly?

Intro part 2
Intro part 1

Verse

Oh, well I know you soak your feathers baby
upon the ghosts along my trail
And I know our light was sold and buried
before I knew it was for sale, oh

Chorus

With all this fever in my mind I should aim for your kerosene eyes
Oh, you're just a target in the sky
where do my bluebirds fly?

Outro
slowly/strum last chord


d |---0-0-h1--3--0--0----|
Bb|---0-0--0--0--2--0----|
G |-h2--2--2--0--2--0----|
D |---0-3--3--1--0--0----|
A |---0----0--0--0--0----|
D |---0-------1----------|

to get the timing and picking pattern:

http://www.youtube.com/watch?v=zG2ccH8jlCA 

Tap to rate this tab
# A B C D E F G H I J K L M N O P Q R S T U V W X Y Z