Song name
# A B C D E F G H I J K L M N O P Q R S T U V W X Y Z

The Tallest Man On Earth - Troubles Will Be Gone tab

Troubles Will be Gone
Tallest Man On Earth
Wild Hunt

Tuning: open D  -->DAD#FAD

I wont show the picking, but the thumb always just alternates between 6th
and 4th string, or 5th and 4th string as usual, with the other fingers
doing other stuff. In the second line below the picking does some slighlty
different stuff, but its not hard to get it fooling around and listening
to the song. Of course the single notes shown are just working into
the picking.

intro (capo not shown)
    D  Dsus4                   D  Dmaj7
D---0--0-----0---0-------------0--0-------0--0---------------|
A---0--0-----0---0-------------0--4-------0--0---------------|
#F--0--1-----0---1p0---0-------0--1-------0--1p0---0---------|
D---0--0-----0---0---2---0-----0--0-------0--0---2---0-------|
A---0--0-----0---0-------------0--0-------0--0---------------|
D---0--0-----0---0-------------0--0-------0--0---------------|
  Dmaj7add11
D---0-----0--0----0----0---0---------0---0-0---0--0-------------|
A---4-----0--0----0----0---0---------4---0-0---0--0-------------|
#F--0-----0--0----0----0h1-0h1-------0---0-0---0--1/3-----------|
D---0-----2--0----0----2---2---------0---2-0---0--2/4-----------|(back to first line)
A---2-----0--0----2----0---0---------2---0-0---2--0-------------|
D---------0--0---------0---0-------------0-0--------------------|
         A7  D    Bm   A7

The rest of the song uses the same basic chords. I think when he starts off
singing he is playing the Dmaj7add11 chord, and plays the second line shown
above.
Tap to rate this tab
# A B C D E F G H I J K L M N O P Q R S T U V W X Y Z