Song name
# A B C D E F G H I J K L M N O P Q R S T U V W X Y Z

The Tallest Man On Earth - It Will Follow The Rain tab

This is my version of the 4 parts of the song.

 feel free to add/comment/improve it in any way you may consider useful



Capo 6th fret



 e|---------------------3p0---------------------|
Bb|--------------1--------------1---------------|
 G|------1------------2-------------2-----------|
 D|------2---------2---------2------------------|
 G|-0---------0---------0---------0-------------|
 D|------------------------------------3--------|

 e|---------------------1-----------------------|
Bb|--------------3--------------3---------------|
 G|------2------------2-------------2-----------|
 D|------0---------0---------0---------0--------|
 G|-0---------0---------0---------0-------------|
 D|---------------------------------------------|

 e|---------------------0-----------------------|
Bb|--------------0--------------0---------------|
 G|------2------------2-------------2-----------|
 D|------3---------3---------3---------3--------|
 G|---------------------------------------------|
 D|-3---------3---------3---------3-------------|

 e|---------------------0-----------------------|
Bb|--------------1--------------1---------------|
 G|------2------------2-------------2-----------|
 D|------3---------3---------3---------3--------|
 G|---------------------------------------------|
 D|-1---------1---------1---------1-------------|



any comments on joseluisluna05@hotmail.com
Tap to rate this tab
 
# A B C D E F G H I J K L M N O P Q R S T U V W X Y Z