Song name
# A B C D E F G H I J K L M N O P Q R S T U V W X Y Z

The Tallest Man On Earth - Troubles Will Be Gone tab

Artist - The Tallest man on Earth

Song - Troubles will be Gone

Capo 7th fret

Open G Tuning


Intro
d|-----------------------------|------------------------------|
b|---------0-----1----3---0----|---------0-----1p0-------0----|
g|----0---------------------0--|----0----------------2--------|
d|----0------0h2----0----------|----0------0h2-----2-------0--|
g|-0-----0-------0------0------|-0-----0-------0-------0------|
d|-----------------------------|------------------------------|


d|--------------------4--------|------------------------------|
b|---------0-----1--------3----|---------0-----1p0-------0----|
g|----0------------------------|----0----------------2--------|
d|----0------0h2----2-------0--|----0------0h2-----2-------0--|
g|-0-----0-------0------0------|-0-----0-------0-------0------|
d|-----------------------------|------------------------------|

        [-3-]
d|-----------4---4----0--------|-------------------------0----|
b|----0-------------------0----|-0--------0-----0-------------|
g|----0------------------------|------2-------0------0-------0|
d|----------0-------2-------0--|----0-------0------4-------0--|
g|-------0h2-------------------|-0----------------------------|
d|-2-------------2------2------|--------4-------2------2------|


d|---------2----2p0------------|----------0-----------0-------|
b|--------------------1---0----|----0h1---------0h1-----------|
g|----0------------------------|--------------0-----------0---|
d|----2------2------2-------0--|----0-------0-------0-------0-|
g|-0-----0------0-------0------|------------------------------|
d|-----------------------------|-0------0-------0-------0-----|

        [-3-]
d|-----------4---4----0--------|-------------------------0----|
b|----0-------------------0----|-0--------0-----0-------------|
g|----0------------------------|------2-------0------0-------0|
d|----------0-------2-------0--|----0-------0------4-------0--|
g|-------0h2-------------------|-0----------------------------|
d|-2-------------2------2------|--------4-------2------2------|


d|----2----0-------------------|
b|--------------1/3---3-----1--|
g|--------------2/4---------2--|
d|----2------0------0-----0----|
g|-0-----0---------------------|
d|--------------0-------0------|

Verse
d|-----------------------------|------------------------------|
b|---------0-----1----3---0----|---------0-----1p0-------0----|
g|----0---------------------0--|----0----------------2--------|
d|----0------0h2----0----------|----0------0h2-----2-------0--|
g|-0-----0-------0------0------|-0-----0-------0-------0------|
d|-----------------------------|------------------------------|

                                                                --|
d|--------------0--------------|-------------------------0----|   |
b|---------0---------0---------|-0--------0-----0-------------|   |
g|----0------------------0-----|------2-------0------0-------0|   |
d|----2------2-----2-------0---|----0-------0------4-------0--|   |
g|-----------------------------|-0----------------------------|   |
d|-2-----2------2------2-------|--------4-------2------2------|   |
                                                                  |
                                                                  | X2
d|--------------2--------------|----------0-----------0-------|   |
b|---------1---------1---------|----0h1---------0h1-----------|   |
g|----0------------------0-----|--------------0-----------0---|   |
d|----2------2-----2-------0---|----0-------0-------0-------0-|   |
g|-0-----0------0------0-------|------------------------------|   |
d|-----------------------------|-0------0-------0-------0-----|   |
                                                                --|

                                                                --|
d|--------------2--------------|----------0-----------0-------|   |
b|---------1---------1---------|----0h1---------0h1-----------|   |
g|----0------------------0-----|--------------0-----------0---|   |
d|----2------2-----2-------0---|----0-------0-------0-------0-|   | X2
g|-0-----0------0------0-------|------------------------------|   |
d|-----------------------------|-0------0-------0-------0-----|   |
                                                                --|

d|----------0-----4----0-------|
b|----0h1----------------------|
g|--------------0----------0---|
d|----0-------0------0-------0-|
g|-----------------------------|
d|-0------0-------0------0-----|

Chorus
d|--------------0--------------|-------------------------0----|
b|---------0---------0---------|-0--------0-----0-------------|
g|----0------------------0-----|------2-------0------0-------0|
d|----2------2-----2-------0---|----0-------0------4-------0--|
g|-----------------------------|-0----------------------------|
d|-2-----2------2------2-------|--------4-------2------2------|

d|--------------1----0---------|
b|---------1-------------------|
g|----0------------------0-----|
d|----2------0-----0-------0---|
g|-0-----0---------------------|
d|--------------0------0-------|

These sections allow you to play the entire song, he uses different parts of the intro 
each verse section so just listen to the song for which parts to play.

The chord at the very end of the song is...

d|-4/5-------------------------|
b|-3---------------------------|
g|-0---------------------------|
d|-4---------------------------|
g|-0---------------------------|
d|-----------------------------|

Enjoi!
Tap to rate this tab
 
# A B C D E F G H I J K L M N O P Q R S T U V W X Y Z