Song name
# A B C D E F G H I J K L M N O P Q R S T U V W X Y Z

The Tallest Man On Earth - Where I Thought I Met The Angles tab

Song: I Thought I Met The Angels
Artist: The Tallest Man on Earth

Tuning: Standard
Capo: 6

Chords used:
-3-      -0-      -0-      -2-|
-2-      -2-      -3-      -0-|
-0-      -4-      -2-      -0-|
-0-      -4-      -0-      -0-|
-3-      -3-      -1-      -3-|
-0-      -0-      -0-      -0-|
Chord 1  Chord 2  Chord 3  Chord 4

Chord 1: Basically a G chord
Chord 2: Bm w/o the bar
Chord 3: C chord
Chord 4: walk down to Em

I tried my best to tab out the finger-picking pattern here. As opposed to individually 
each note, it is easiest just to pick out the notes within the chords above.

Intro (Chord 1):
----3-------3-------3-------3-------3-------3-----|
--------------------------------------------------|
--------0-------0-------0-------0-------0---------|
-------------0-------0-------0-------0------------|
--------------------------------------------------|
--------------------------------------------------|

--------3-------3-------3-------3-------3---------|
--------------------------------------------------|
----0-------0-------0-------0-------0-------0-----|
-0-------0-------0--------------------------------|
----------------------------2---2---2---2---0-----|
--------------------------------------------------|

---3-------3-------3-------3-------3-------3------|
--------------------------------------------------|
-------0-------0-------0-------0-------0-------0--|
--------------------------------------------------|
-------2---2---2---2---0-------2---2---2---2---0--|
--------------------------------------------------|


Basic chord progression:
-----------------------------------|
-2--------------2------------------|
----4-------4-----------4------4---|
----4----------------------4-------|
--------3-----------3--------------|
----------------0------------------|(Chord 2)

-----------------------------------|
-3--------------3------------------|
----2-------2-----------2-------2--|
----0----------------------2-------|
--------1-------3---1--------------|
-----------------------------------|(Chord 3)

-3-------3-------2-------2---------|
-----------------------------------|
----0---------0-------0-------0----|
-----------0---------------0-------|
-----------------------------------|
-----------------------------------|(Chord 1/Chord 4)

-----------------------------------|
-3--------------3------------------|
----2-------2-----------2-------2--|
----0----------------------2-------|
--------1-------3---1--------------|
-----------------------------------|(Chord 3)


Sometimes he shakes it up:
-----------------------------------|
-2--------------2------------------|
----4-------4-----------4------4---|
----4----------------------4-------|
--------3-----------3--------------|
----------------0------------------|(Chord 2)

-----------------------------------|
-3--------------3------------------|
----2-------2-----------2-------2--|
----0----------------------2-------|
--------1-------3---1--------------|
-----------------------------------|(Chord 3)

--0--------2--------3--------------|
---------------------------0-------|
------0--------0--------0----------|
----0--------0--------0------------|
--------0--------0--------0--------|
-----------------------------------|

-----------------------------------|
-3--------------3------------------|
----2-------2-----------2-------2--|
----0----------------------2-------|
--------1-------3---1--------------|
-----------------------------------|(Chord 3)

-----------------------------------|
-2--------------2------------------|
----4-------4-----------4------4---|
----4----------------------4-------|
--------3-----------3--------------|
----------------0------------------|(Chord 2)

-----------------------------------|
-3--------------3------------------|
----2-------2-----------2-------2--|
----0----------------------2-------|
--------1-------3---1--------------|
-----------------------------------|(Chord 3)

-3-------3-------2-------2---------|
-----------------------------------|
----0---------0-------0-------0----|
-----------0---------------0-------|
-----------------------------------|
-----------------------------------|(Chord 1/Chord 4)

-3-------3-------3-----------------|
-----------------------------------|
-----0-------0-------0-------------|
-----------------------------------|
-----2---2---2---2----0------------|
-----------------------------------|(basically it goes back to the intro)

There it is! Happy playing!
Tap to rate this tab
 
# A B C D E F G H I J K L M N O P Q R S T U V W X Y Z