Song name
# A B C D E F G H I J K L M N O P Q R S T U V W X Y Z

The Tallest Man On Earth - Graceland tab

Tuning is CAFCFC
Capo 9th fret
Down, down, up, down, up, up, down, up

Okay there are a lot of errors here that I will try to fix but here is a version for 
I am sure about the tuning and capo.

The Mississippi Delta was shining
Like a National                               guitar
C|--------0--0--0-0-0---0-0-0--|--0-0-0-----0-0--0-0-0--0-0-0------|
A|--------0--0--0-0-0---0-0-0--|--0-0-0-----0-0--0-0-0--0-0-0------|
F|--------0--0--0-0-0---0-0-0--|--0-0-0-----0-0--0-0-0--0-0-0------|
C|--------5--5--0-0-5---0-0-5--|--0-0-0-----2-2--0-0-2--0-0-2------|
F|--------0--0--0-0-0---0-0-0--|--2-2-2-----0-0--0-0-0--0-0-0------|
C|--------5--5--0-0-5---0-0-5--|--0-0-0-----2-2--0-0-2--0-0-2------|

I am following the river
Down the highway
Through the cradle of the civil               war
C|--------0--0--0-0-0---0-0-0--|--0-0-0-----0-0--0-0-0--0-0-0------|
A|--------0--0--0-0-0---0-0-0--|--0-0-0-----0-0--0-0-0--0-0-0------|
F|--------0--0--0-0-0---0-0-0--|--0-0-0-----0-0--0-0-0--0-0-0------|
C|--------5--5--0-0-5---0-0-5--|--0-0-0-----2-2--0-0-2--0-0-2------|
F|--------0--0--0-0-0---0-0-0--|--2-2-2-----0-0--0-0-0--0-0-0------|
C|--------5--5--0-0-5---0-0-5--|--0-0-0-----2-2--0-0-2--0-0-2------|

    I'm going to   Graceland, Memphis
C|--------0-0----0-0--0-0-0--0-0-0--|
A|--------0-0----0-0--0-0-0--0-0-0--|
F|--------0-0----0-0--0-0-0--0-0-0--|
C|--------0-0----0-5--0-0-0--5-5-5--|
F|--------2-2----0-0--0-0-0--0-0-0--|
C|--------5-5----0-5--0-0-0--5-5-5--|

 Tennessee I'm going to   Graceland
C|--------0-0----0-0--0-0-0--0-0-0--|
A|--------0-0----0-0--0-0-0--0-0-0--|
F|--------0-0----0-0--0-0-0--0-0-0--|
C|--------0-0----0-5--0-0-0--5-5-5--|
F|--------2-2----0-0--0-0-0--0-0-0--|
C|--------5-5----0-5--0-0-0--5-5-5--|

She comes back to tell me she's    gone
C|--------0--0--0-0-0---0-0-0--|-0-0--0-0-0--0-0-0-|
A|--------0--0--0-0-0---0-0-0--|-0-0--0-0-0--0-0-0-|
F|--------0--0--0-0-0---0-0-0--|-0-0--0-0-0--0-0-0-|
C|--------5--5--0-0-5---0-0-5--|-5-5--0-0-5--0-0-5-|
F|--------0--0--0-0-0---0-0-0--|-4-4--0-0-4--0-0-4-|
C|--------5--5--0-0-5---0-0-5--|-2-2--0-0-2--0-0-2-|


As if I didn't know that        As if I didn't know my own
C|--------0-0-0--0-0--0-0-0--|-0-0-0--0-0--0-0-0-|
A|--------0-0-0--0-0--0-0-0--|-0-0-0--0-0--0-0-0-|
F|--------0-0-0--0-0--0-0-0--|-0-0-0--0-0--0-0-0-|
C|--------2-2-2--0-0--2-2-2--|-2-2-2--0-0--2-2-2-|
F|--------4-4-4--0-0--4-4-4--|-4-4-4--0-0--4-4-4-|
C|--------0-0-0--0-0--0-0-0--|-0-0-0--0-0--0-0-0-|

   bed                        As if I'd never  noticed
C|---0-0--0-0-0--0-0-0------|--0-0--0-0-0--0-0-0-|
A|---0-0--0-0-0--0-0-0------|--0-0--0-0-0--0-0-0-|
F|---0-0--0-0-0--0-0-0------|--0-0--0-0-0--0-0-0-|
C|---2-2--0-0-2--0-0-2------|--5-5--0-0-5--0-0-5-|
F|---0-0--0-0-0--0-0-0------|--4-4--0-0-4--0-0-4-|
C|---2-2--0-0-2--0-0-2------|--2-2--0-0-2--0-0-2-|

The way she brushes her hair from her
C|--------0-0-0--0-0--0-0-0--|
A|--------0-0-0--0-0--0-0-0--|
F|--------0-0-0--0-0--0-0-0--|
C|--------2-2-2--0-0--2-2-2--|
F|--------4-4-4--0-0--4-4-4--|
C|--------0-0-0--0-0--0-0-0--|

forehead                                     she said losing love
C|--------0--0--0-0-0---0-0-0--|--0-0-0-----0-0--0-0-0--0-0-0------|
A|--------0--0--0-0-0---0-0-0--|--0-0-0-----0-0--0-0-0--0-0-0------|
F|--------0--0--0-0-0---0-0-0--|--0-0-0-----0-0--0-0-0--0-0-0------|
C|--------5--5--0-0-5---0-0-5--|--0-0-0-----5-5--5-5-5--5-5-5------|
F|--------0--0--0-0-0---0-0-0--|--0-0-0-----0-0--0-5-0--5-5-5------|
C|--------5--5--0-0-5---0-0-5--|--0-0-0-----5-5--5-5-5--5-5-5------|

Is like a window in your heart,
C|--0-0-0-----0-0--0-0-0--0-0-0------|
A|--0-0-0-----0-0--0-0-0--0-0-0------|
F|--0-0-0-----0-0--0-0-0--0-0-0------|
C|--0-0-0-----5-5--5-5-5--5-5-5------|
F|--0-0-0-----0-0--0-5-0--5-5-5------|
C|--0-0-0-----5-5--5-5-5--5-5-5------|


Everybody sees you're            blown apart,
C|--------0-0-0--0-0--0-0-0--|-0-0-0--0-0-0--0-0-0-|
A|--------0-0-0--0-0--0-0-0--|-0-0-0--0-0-0--0-0-0-|
F|--------0-0-0--0-0--0-0-0--|-0-0-0--0-0-0--0-0-0-|
C|--------2-2-2--0-0--2-2-2--|-2-2-2--0-0-2--0-0-2-|
F|--------4-4-4--0-0--4-4-4--|-0-0-0--0-0-0--0-0-0-|
C|--------0-0-0--0-0--0-0-0--|-2-2-2--0-0-2--0-0-2-|

Everybody feels the wind blow,
C|--------0-0-0--0-0--0-0-0--|
A|--------0-0-0--0-0--0-0-0--|
F|--------0-0-0--0-0--0-0-0--|
C|--------2-2-2--0-0--2-2-2--|
F|--------4-4-4--0-0--4-4-4--|
C|--------0-0-0--0-0--0-0-0--|

    I'm going to   Graceland, Memphis
C|--------0-0----0-0--0-0-0--0-0-0--|
A|--------0-0----0-0--0-0-0--0-0-0--|
F|--------0-0----0-0--0-0-0--0-0-0--|
C|--------0-0----0-5--0-0-0--5-5-5--|
F|--------2-2----0-0--0-0-0--0-0-0--|
C|--------5-5----0-5--0-0-0--5-5-5--|

 Tennessee I'm going to   Graceland
C|--------0-0----0-0--0-0-0--0-0-0--|
A|--------0-0----0-0--0-0-0--0-0-0--|
F|--------0-0----0-0--0-0-0--0-0-0--|
C|--------0-0----0-5--0-0-0--5-5-5--|
F|--------2-2----0-0--0-0-0--0-0-0--|
C|--------5-5----0-5--0-0-0--5-5-5--|

And there's a girl in New York City,
She calls herself the human                trampoline,
C|--------0--0--0-0-0---0-0-0--|--0-0-0-----0-0--0-0-0--0-0-0------|
A|--------0--0--0-0-0---0-0-0--|--0-0-0-----0-0--0-0-0--0-0-0------|
F|--------0--0--0-0-0---0-0-0--|--0-0-0-----0-0--0-0-0--0-0-0------|
C|--------5--5--0-0-5---0-0-5--|--0-0-0-----2-2--0-0-2--0-0-2------|
F|--------0--0--0-0-0---0-0-0--|--2-2-2-----0-0--0-0-0--0-0-0------|
C|--------5--5--0-0-5---0-0-5--|--0-0-0-----2-2--0-0-2--0-0-2------|

And sometimes when I'm falling flying
tumbling in turmoil I say
C|--------0--0--0-0-0---0-0-0--|       x2
A|--------0--0--0-0-0---0-0-0--|
F|--------0--0--0-0-0---0-0-0--|
C|--------5--5--0-0-5---0-0-5--|
C|--------5--5--0-0-5---0-0-5--|

Whoa is this what ya mean,
C|--------0-0-0--0-0--0-0-0--|
A|--------0-0-0--0-0--0-0-0--|
F|--------0-0-0--0-0--0-0-0--|
C|--------2-2-2--0-0--2-2-2--|
F|--------4-4-4--0-0--4-4-4--|
C|--------0-0-0--0-0--0-0-0--|

She says we're bouncing into Graceland,
I see losing love
Is like a window in your heart,
C|--------0-0----0-0--0-0-0--0-0-0--|
A|--------0-0----0-0--0-0-0--0-0-0--|
F|--------0-0----0-0--0-0-0--0-0-0--|    x3
C|--------0-0----0-5--0-0-0--5-5-5--|
F|--------2-2----0-0--0-0-0--0-0-0--|
C|--------5-5----0-5--0-0-0--5-5-5--|

Everybody sees you're            blown apart,
C|--------0-0-0--0-0--0-0-0--|-0-0-0--0-0-0--0-0-0-|
A|--------0-0-0--0-0--0-0-0--|-0-0-0--0-0-0--0-0-0-|
F|--------0-0-0--0-0--0-0-0--|-0-0-0--0-0-0--0-0-0-|
C|--------2-2-2--0-0--2-2-2--|-2-2-2--0-0-2--0-0-2-|
F|--------4-4-4--0-0--4-4-4--|-0-0-0--0-0-0--0-0-0-|
C|--------0-0-0--0-0--0-0-0--|-2-2-2--0-0-2--0-0-2-|

Everybody feels the wind blow,
C|--------0-0-0--0-0--0-0-0--|
A|--------0-0-0--0-0--0-0-0--|
F|--------0-0-0--0-0--0-0-0--|
C|--------2-2-2--0-0--2-2-2--|
F|--------4-4-4--0-0--4-4-4--|
C|--------0-0-0--0-0--0-0-0--|
Tap to rate this tab
 
# A B C D E F G H I J K L M N O P Q R S T U V W X Y Z