Song name
# A B C D E F G H I J K L M N O P Q R S T U V W X Y Z

The Tallest Man On Earth - Graceland tab

Tuning: D# G# D# G# C D#
Capo 9th fret
Strumming Pattern: 
Down, Down, Up, Up, Down, Up, Up, Down, Up, Up, Down Up
(intro starts on up)

This tab is much more accurate than my last attempt.
The tuning and capo position are correct.
This is not exactly how the Tallest Man on Earth plays it, but it’s pretty close. 
Watch him play it on youtube or KCRW morning becomes eclectic.

Here’s me playing it to get a better idea:
http://www.youtube.com/watch?v=2TCDUwmCSf4

Some parts are just a slide or adding a finger, so, I tabbed those parts out. If 
it is just the chord then it is the normal strumming pattern.
Hope this helps.

Intro
D#|--------0-0-0--0-0---0-0-0--0-0-0-|-0-0-0--0-0---0-0-0--0-0-0-|
G#|--------0-0-0--0-0---0-0-0--0-0-0-|-0-0-0--0-0---0-0-0--0-0-0-|
D#|--------0-0-0--0-0---0-0-0--0-0-0-|-0-0-0--0-0---0-0-0--0-0-0-|
G#|--------5-5-5--5-5---5-0-5--5-5-5-|-5-5-5--5-5---5-0-5--5-5-5-|
C |--------0-0-0--0-0---0-0-0--0-0-0-|-0-0-0--0-0---0-0-0--0-0-0-|
D#|--------5-5-5--5-5---5-0-5--5-5-5-|-5-5-5--5-5---5-0-5--5-5-5-|

D#|--------0-0-0--0-0---0-0-0--0-0-0-|-0-0-0--0--0-0--0-0-0--0-0-|
G#|--------0-0-0--0-0---0-0-0--0-0-0-|-0-0-0--0--0-0--0-0-0--0-0-|
D#|--------0-0-0--0-0---0-0-0--0-0-0-|-0-0-0--0--0-0--0-0-0--0-0-|
G#|--------4-4-4--5-5---5-0-5--5-5-5-|-0-0-0--2--2-2--2-2-2--2-2-|
C |--------2-2-2--0-0---0-0-0--0-0-0-|-2-0-0--0--0-0--0-0-0--0-0-|
D#|--------0-0-0--5-5---5-0-5--5-5-5-|-0-0-0--2--2-2--2-2-2--2-2-|

(add pinky to play 4)
D#|--------0-0-0--0—-0-0-0--0-0-0|-0-0-0--0--0-0--0-0-0--0-0-0-|
G#|--------0-0-0--0—-0-0-0--0-0-0|-0-0-0--0--0-0--0-0-0--0-0-0-|
D#|--------0-0-0--0—-0-0-0--0-0-0|-0-0-0--0--0-0--0-0-0--0-0-0-|
G#|--------4-4-4--2—-2-2-2--2-2-2|-2-2-2--3--3-3--3-3-3--3-3-3-|
C |--------0-0-0—-0—-0-0-0--0-0-0|-0-0-0--2--2-2--2-2-2--2-2-2-|
D#|--------2-2-2—-2—-2-2-2--2-2-2|-2-2-2--0--0-0--0-0-0--0-0-0-|

Verse 1
The Mississippi Delta was shining Like a National 
D#|---0
G#|---0
D#|---0
G#|---5
C |---0
D#|---5

Guitar                    (Add ring finger to play 4)
D#|---0--0-0--0-0-0--0-0-0|-0-0-0--0-0-0-|
G#|---0--0-0--0-0-0--0-0-0|-0-0-0--0-0-0-|
D#|---0--0-0--0-0-0--0-0-0|-0-0-0--0-0-0-|
G#|---2--2-2--2-2-2--2-2-2|-4-4-4--2-2-2-|
C |---5--5-5--5-5-5--5-5-5|-5-5-5--5-5-5-|
D#|---0--0-0--0-0-0--0-0-0|-0-0-0--0-0-0-|
                        
I am following the river down the highway to the cradle of the civil               
D#|---0
G#|---0
D#|---0
G#|---5
C |---0
D#|---2

war
D#|---0
G#|---0
D#|---0
G#|---3
C |---2
D#|---0

Chorus
I'm going to   (Down, down, up, up, down, up)
D#|---0
G#|---0
D#|---0
G#|---4
C |---0
D#|---2

Graceland, Memphis    
D#|---0
G#|---0
D#|---0
G#|---5
C |---0
D#|---5

Tennessee I'm going to (Down, down, up, up, down, up)
D#|---0
G#|---0
D#|---0
G#|---5
C |---0
D#|---5

Graceland
D#|---0
G#|---0
D#|---0
G#|---5
C |---0
D#|---5

And she comes back to tell me she’s gone
D#|---0
G#|---0
D#|---0
G#|---5
C |---0
D#|---5

(Slide down, then return to strumming pattern)
D#|---0-0-0---0
G#|---0-0-0---0
D#|---0-0-0---0
G#|---4-4-4---5
C |---2-2-2---0
D#|---0-0-0---5

As If I didn’t know that, As if I didn’t know my own bed
D#|---0--0-0--0-0-0--0--0-0--0-0-0|-0--0-0--0-0-0-|
G#|---0--0-0--0-0-0--0--0-0--0-0-0|-0--0-0--0-0-0-|
D#|---0--0-0--0-0-0--0--0-0--0-0-0|-0--0-0--0-0-0-|
G#|---2--2-2--2-2-2--2--2-2--2-2-2|-4--4-4--4-4-0-|
C |---5--5-5--5-5-5--5--5-5--5-5-5|-5--5-5--5-5-2-|
D#|---0--0-0--0-0-0--0--0-0--0-0-0|-0--0-0--0-0-0-|

D#|---0--0-0--0-0-0--0--0-0--0-0-0|-0--0-0--0-0-0-|
G#|---0--0-0--0-0-0--0--0-0--0-0-0|-0--0-0--0-0-0-|
D#|---0--0-0--0-0-0--0--0-0--0-0-0|-0--0-0--0-0-0-|
G#|---2--2-2--2-2-2--4--4-4--4-4-4|-2--2-2--2-2-2-|
C |---0--0-0--0-0-0--2--2-2--2-2-2|-0--0-0--0-0-0-|
D#|---2--2-2--2-2-2--0--0-0--0-0-0|-2--2-2--2-2-2-|

As if I never noticed, the way she 
D#|---0
G#|---0
D#|---0
G#|---3
C |---2
D#|---0

Brushes her hair from her
D#|---0
G#|---0
D#|---0
G#|---2
C |---5
D#|---0

Forehead
D#|---0
G#|---0
D#|---0
G#|---5
C |---0
D#|---5

And I see lo-o-o-sing love, is like a window in your
D#|---0
G#|---0
D#|---0
G#|---5
C |---0
D#|---5

Heart, 
D#|---0--0-0--0-0-0--0-0-0|-0-0-0--0-0-0-|
G#|---0--0-0--0-0-0--0-0-0|-0-0-0--0-0-0-|
D#|---0--0-0--0-0-0--0-0-0|-0-0-0--0-0-0-|
G#|---2--2-2--2-2-2--2-2-2|-4-4-4--2-2-2-|
C |---5--5-5--5-5-5--5-5-5|-5-5-5--5-5-5-|
D#|---0--0-0--0-0-0--0-0-0|-0-0-0--0-0-0-|

Everybody sees you’re blown 
D#|---0
G#|---0
D#|---0
G#|---2
C |---5
D#|---0

Apart, everybody sees the
D#|---0
G#|---0
D#|---0
G#|---2
C |---0
D#|---2

Wind blow
D#|---0
G#|---0
D#|---0
G#|---3
C |---2
D#|---0

Chorus
(same)

Verse 2
Same as the first

And there’s a girl in New York City. She calls herself the human trampoline
D#|---0
G#|---0
D#|---0
G#|---5
C |---0
D#|---5

trampoline                 (Add ring finger to play 4)
D#|---0--0-0--0-0-0--0-0-0|-0-0-0--0-0-0-|
G#|---0--0-0--0-0-0--0-0-0|-0-0-0--0-0-0-|
D#|---0--0-0--0-0-0--0-0-0|-0-0-0--0-0-0-|
G#|---2--2-2--2-2-2--2-2-2|-4-4-4--2-2-2-|
C |---5--5-5--5-5-5--5-5-5|-5-5-5--5-5-5-|
D#|---0--0-0--0-0-0--0-0-0|-0-0-0--0-0-0-|
                         
And sometimes when I’m falling, flying, tumbling, in turmoil I say 
D#|---0
G#|---0
D#|---0
G#|---5
C |---0
D#|---2

Woah! So is this what you mean
D#|---0
G#|---0
D#|---0
G#|---3
C |---2
D#|---0

She means were bouncing in to 
D#|---0
G#|---0
D#|---0
G#|---2
C |---5
D#|---0

Graceland
D#|---0
G#|---0
D#|---0
G#|---5
C |---0
D#|---5

And I see lo-o-o-sing love, is like a window in your
D#|---0
G#|---0
D#|---0
G#|---5
C |---0
D#|---5

Heart, 
D#|---0--0-0--0-0-0--0-0-0|-0-0-0--0-0-0-|
G#|---0--0-0--0-0-0--0-0-0|-0-0-0--0-0-0-|
D#|---0--0-0--0-0-0--0-0-0|-0-0-0--0-0-0-|
G#|---2--2-2--2-2-2--2-2-2|-4-4-4--2-2-2-|
C |---5--5-5--5-5-5--5-5-5|-5-5-5--5-5-5-|
D#|---0--0-0--0-0-0--0-0-0|-0-0-0--0-0-0-|

Everybody sees you’re blown 
D#|---0
G#|---0
D#|---0
G#|---2
C |---5
D#|---0

Apart, everybody feels the
D#|---0
G#|---0
D#|---0
G#|---2
C |---0
D#|---2

Wind blow
D#|---0
G#|---0
D#|---0
G#|---3
C |---2
D#|---0

Chorus (one change)

And she comes back to tell me she’s 
D#|---0
G#|---0
D#|---0
G#|---5
C |---0
D#|---5

gone
D#|---0
G#|---0
D#|---0
G#|---2
C |---0
D#|---3

I have a reason to believe that we’ll all be received
D#|---0
G#|---0
D#|---0
G#|---2
C |---5
D#|---0

In Graceland
D#|---0
G#|---0
D#|---0
G#|---5
C |---0
D#|---5
Tap to rate this tab
 
# A B C D E F G H I J K L M N O P Q R S T U V W X Y Z