The Tallest Man On Earth - Thousand Ways tab

Thousand Ways by The Tallest Man On Earth

(It ain't perfect but its better than feck all)
This tab is intended as a step in the right direction.
ie. the strummy picky bit is too hard :(

Tuning CFCFCf   Capo8


Intro

f----5--4--2--0------5--4--2--0------|
C----------------4h0-------------4h0-|
F----0---0---0-------0---0---0-------|
C----------------0---------------0---|
F--0---0---0-------0---0---0---------|
C--------------4---------------4-----|

f----------------------------5--4--2--0-------|
C----4--4-/5--5-5----0----0-------------------|
F----2---2---4---4------0----0---0---0---0----|
C--------------------2---2--------------------|
F--0---0---0---0---5---5---0---0---0---0---0--|
C---------------------------------------------|

--------------------------------------------------|
----0---0---0---0---0---0---0---0-----0-------0---|
--0---0---0---0---0---0---0---0-----0---0---0---0-|
---0---0---0---0---2---2---0---0---2---2---0---0--|
-0---------------5---5---0---0---5---5------------|
-----4---2---0---------------------------4---4----|


Oh, I am live for ages......

f----------------------------5--4--2--0-------|
C----4--4-/5--5-5----0----0-------------------|
F----2---2---4---4------0----0---0---0---0----|
C--------------------2---2--------------------|
F--0---0---0---0---5---5---0---0---0---0------|
C---------------------------------------------|

I'm a thousand weeks of springtime.....

-------------------------------------------------|
---0---0---0---0---0---0---0---0-----0-------0---|
-0---0---0---0---0---0---0---0-----0---0---0---0-|
--0---0---0---0---2---2---0---0---2---2---0---0--|
0---------------5---5---0---0---5---5------------|
----4---2---0---------------------------4---4----|

f----5--4--2--0------5--4--2--0------|
C----------------4h0-------------4h0-|
F----0---0---0-------0---0---0-------|
C----------------0---------------0---|
F--0---0---0-------0---0---0---------|
C--------------4---------------4-----|

And I'll always be blamed for the sun going down on us all

f-----------------------------------|
C-------0-------0-------0-------0---|
F-----0---0---0---0---0---0---0---0-|
C----4---4---4---4---4---4---4---4--|
F------2-------2-------2-------2----|
C--0-------0-------0-------0--------|

f-----------------------------------|
C-------0-------0-------0-------0---|
F-----0---0---0---0---0---0---0---0-|
C----2---2---2---2---4---4---4---4--|
F--5---5---5---5--------------------|
C------------------4---4---4---4----|

But i'm the light in the middle of everymans fall

--------------------------|
-----0-------0-------0----|
---0---0---0---0---0---0--|
--4---4---2---2---4---4---|
--------5---5---2---2---0-|
2---2---------------------|

Oh I am live for ages i'm a thousand turns of tides
I'm a thousand weeks of springtime and a thousand infant cries
Oh a thousand, Infant cries
I've got 16 hundred tigers now tied to silver string
When they pull out in the pasture oh the mighty heart will sing
Oh the mighty, heart will sing

But i'll always be blamed for the sun going down with us all
But i'm the light in the middle of everymans fall

I bend my arrows now in cirles and I shoot around the hill
If I don't get you in the morning by the evening I sure will
By the evening, I sure will
Cos i'm the fire on the mountain you have lit up in your dreams
But also water on the fountain you can send myself for me
You can send myself for me

Cos i'll always be blamed for the sun going down with us all
But i'm the light in the middle of everymans fall

And no I never meant to say these word but yes you ought to know
That the dark in what i've always been will not ever go
No it will not, ever go
And for so I lived a thousand years a thousand turns of tide
Just a thousand leaves in autumn and a thousand ways to try
Oh a thousand, its just a thousand, ways to try
Tap to rate this tab
 
# A B C D E F G H I J K L M N O P Q R S T U V W X Y Z