Song name
# A B C D E F G H I J K L M N O P Q R S T U V W X Y Z

The Tallest Man On Earth - Tangle In This Trampled Wheat tab

Capo on 3th

e---------------0---------------------0-----------------0------------------|
B-------2---2/3---3-----------2---2/3---3-------0---2-------2---0---3/2-0--|
G---2---------------2-----2---------------2--------------------------------|
D--------------------------------------------------------------------------|
A-0---0---0-------------0---0---0------------------------------------------|
E---------------------------------------------0---0---0---0---0---0--------|

e-----------------0---2/0-------------------0---------------0---2/0---------|
B---3/2-0-2---2-------------2---0---0---2-------2---0---2-------------2---0-|
G---------------------------------------------------------------------------|
D-----------0---0---0-----0---0-----------------------0---0---0-----0---0---|
A---------------------------------------------------------------------------|
E-0-------------------------------0---0---0---0---0-------------------------|

e-----------0---------|
B---0---2-------2-----|
G-------------------2-|
D---------------------|
A---------------------|
E-0---0---0---0---0---|

To figure out the timing, listen to the song.
Hope that someoneŽll try the rest.

tapped by Matthias Sippl
Tap to rate this tab
# A B C D E F G H I J K L M N O P Q R S T U V W X Y Z