Song name
# A B C D E F G H I J K L M N O P Q R S T U V W X Y Z

The Tallest Man On Earth - Tangled In This Trampled Wheat tab

First tab, so be gentle.
I think it is mostly right, not 100% for sure though.

d----------------0-------|  
b-------0---0h1-------0--|
g----0-------------0-----|  x2
D----0----0-----2----2---|
A-----------3-----3------|
E--3---3-----------------|


d--------0----------------------------------|
b-----0---------0-------1p0------1p0----0---|
g--2---------2------2-------2---------2---2-|
D----0-----0------0-------------------------|
A-------------------------------------------|
E-2-----2------2------2--------2------------|


d-----------2p0----------------0---------------|
b-------1---------1---------0---------0--------|
g---2---------------2---2---------2--------2---|  x2
D---2-----2---------------0------0------0------|
A-0---0---------0------------------------------|
E---------------------2-----2-------2----------|

the last line there needs a little work...
should have the whole thing up soon.
Tap to rate this tab
# A B C D E F G H I J K L M N O P Q R S T U V W X Y Z