Song name
# A B C D E F G H I J K L M N O P Q R S T U V W X Y Z

The Tallest Man On Earth - Into The Stream tab

I've tried to make it as clear as possible in terms of structure, please read everything 
I've written it should help!


Intro

D|--------------0-----------------|--------------2------------------|
A|------3---------------3---------|------1---------------1----------|
F|--4-------4-------4-------4-4\2-|--2-------2-------2-------2-2-2/4|
D|----0-------0-------0-------0---|----0-------0-------0-------0----|
A|--------------------------------|---------------------------------|
D|0-------0-------0-------0-------|0-------0-------0-------0--------|

                                                           I'll set the
D|--------------0-----------------|--------------2------------------|
A|------3---------------3---------|------1---------------1-------3--|
F|--4-------4-------4-------4-4\2-|--2-------2-------2-------0------|
D|----0-------0-------0-------0---|----0-------0-------0-------0----|
A|--------------------------------|------------------------1--------|
D|0-------0-------0-------0-------|0-------0-------0----------------|

Verse

D|--------------------------------|---------------------------------|
A|------3---------------3---------|------3---------------3----------|
F|--0-------0---0---0-------0---0-|--0-------0---0---0-------0---0--|
D|----2-------2-------2-------2---|----0-------0-------2-------2----|
A|--------------------------------|1-------1------------------------|
D|3-------3-------3-------3-------|----------------3-------3--------|


D|--------------------------------|---------------------------------|
A|------3---------------3---------|------3---------------3----------|
F|--0-------0---0---0-------0---0-|--0-------0---0---0-------0---0--|
D|----2-------2-------2-------2---|----0-------0-------2-------0----|
A|--------------------------------|1-------1---------------1--------|
D|0-------0-------3-------3-------|----------------3----------------|

D|--------------------------------|---------------------------------|
A|------3---------------3---------|------3---------------3----------|
F|--0-------0---0---0-------0---0-|--0-------0---0---0-------0---0--|
D|----2-------2-------2-------2---|----0-------0-------2-------2----|
A|--------------------------------|1-------1------------------------|
D|3-------3-------3-------3-------|----------------3-------3--------|

D|--------------------------------|---------------------------------|
A|------3---------------3---------|------3---------------3----------|
F|--0-------0---0---0-------0---0-|--0-------0---0---0-------0---0--|
D|----2-------2-------2-------2---|----0-------0-------2-------2----|
A|--------------------------------|1-------1------------------------|
D|0-------0-------3-------3-------|----------------3-------3--------|


(sort of) Bridge
D|--------------------------------|---------------------------------|
A|------3---------------3---------|------3---------------3----------|
F|--0-------0---0---0-------0---0-|--0-------0---0---0-------0---0--|
D|----2-------2-------2-------2---|----2-------2-------2-------2----|
A|3-------3-------3-------3-------|3-------3-------3-------3--------|
D|--------------------------------|---------------------------------|



After the 2nd Verse + bridge he plays the last 4 bars of the verse again before the next 
verse begins
D|--------------------------------|---------------------------------|
A|------3---------------3---------|------3---------------3----------|
F|--0-------0---0---0-------0---0-|--0-------0---0---0-------0---0--|
D|----2-------2-------2-------2---|----0-------0-------2-------2----|
A|--------------------------------|1-------1------------------------|
D|3-------3-------3-------3-------|----------------3-------3--------|

D|--------------------------------|---------------------------------|
A|------3---------------3---------|------3---------------3----------|
F|--0-------0---0---0-------0---0-|--0-------0---0---0-------0---0--|
D|----2-------2-------2-------2---|----0-------0-------2-------2----|
A|--------------------------------|1-------1------------------------|
D|0-------0-------3-------3-------|----------------3-------3--------|

After the 3rd and 4th verse + bridge he only plays the 1st bar of the previous 4 bars 
mentioned, then the intro:


D|--------------0-----------------|--------------2------------------|
A|------3---------------3---------|------1---------------1----------|
F|--4-------4-------4-------4-4\2-|--2-------2-------2-------2-2-2/4|
D|----0-------0-------0-------0---|----0-------0-------0-------0----|
A|--------------------------------|---------------------------------|
D|0-------0-------0-------0-------|0-------0-------0-------0--------|

D|--------------0-----------------|--------------2------------------|
A|------3---------------3---------|------1---------------1----------|
F|--4-------4-------4-------4-4\2-|--2-------2-------2-------2-2-2/4|
D|----0-------0-------0-------0---|----0-------0-------0-------0----|
A|--------------------------------|---------------------------------|
D|0-------0-------0-------0-------|0-------0-------0-------0--------|
then the..


Intro variation/ Ending

D|--------------4-----------------|--------------3------------------|
A|------3---------------3---------|------2---------------2----------|
F|--4-------4-------4-------4-4\2-|--2-------2-------2-------2---2--|
D|----0-------0-------0-------0---|----0-------0-------0-------0----|
A|--------------------------------|---------------------------------|
D|0-------0-------0-------0-------|0-------0-------0-------0--------|


D|--------------2-------0---2---0-|--------------0---------------0--|
A|------1-------------------------|--0---0---0-------0---0---0------|
F|--2-------2-------2-------------|---------------------------------|
D|----0-------0-------0-------0---|----0-------0-------0-------0----|
A|--------------------------------|---------------------------------|
D|0-------0-------0-------0-------|0-------0-------0-------0--------|

For the ending the final bar is replaced with this.

D|--------------0-0---------------|
A|--0---0---0-----0---------------|
F|----------------0---------------|
D|----0-------0---0---------------|
A|----------------0---------------|
D|0-------0-------0---------------|


So this is the order:

Intro
Verse
Bridge
Verse
Bridge + 2nd half of verse
Verse
Bridge
Intro
Intro Variation
Verse
Bridge (plays an extra bar in the last bridge)
Intro
Ending

Hope this makes sense! I'll try and reply to comments
Tap to rate this tab
# A B C D E F G H I J K L M N O P Q R S T U V W X Y Z